» Letras de músicas » Notícias » Video Aulas » Guitar Pro » Gospel
Waldir Azevedo

Waldir Azevedo

Carioquinha Tablatura

Ano: 2009
Album : Brasileirinho
Compositor : (Waldir Azevedo)

Cifras Cancelar Versão de Impressão
cifras

Waldir Azevedo - Carioquinha

fixar na tela  
Exibindo: vídeo-aula ver clipes redimensionar
  Intro:   

d|-3-3-3--3-3--3-3---3-3-3--3-3--3-3---7-------------------------|    
B|-3-3-3--3-3--3-3---3-3-3--3-3--3-3---5-------------------------|    
G|-2-2-2--2-2--2-2---1-1-1--1-1--1-1-----------------------------|    
D|-3-3-3--3-3--3-3---3-3-3--3-3--3-3-----------------------------|    

Parte A:   

d|-------------------------------------------------------------0-|    
B|---------------------------------------------------------------|    
G|-------2-------2-------2--2-------2-------2-------2--2-0-2-3---|    
D|-0-2-3---0-2-3---0-2-3------0-2-3---0-2-3---0-2-3--------------|    
    

d|-------0-------0--0-------0-------0-------0--0-----------------|    
B|--------------------------------------------------------------2|    
G|-0-2-3---0-2-3------0-2-3---0-2-3---0-2-3---------------2-1-2--|    
D|-----------------------------------------------2--2-1-2--------|    


d|-2-7-6-5--4-3----------2-1-0---------2-1-0-2-1-0---------------|    
B|------------3------------------------------------2-------------|    
G|---------------------------------------------------------------|    
D|-----------------2-1-2---------2-1-2---------------------------|    


d|-------------------------------------------------------------0-|    
B|---------------------------------------------------------------|    
G|-------2-------2-------2--2-------2-------2-------2--2-0-2-3---|    
D|-0-2-3---0-2-3---0-2-3------0-2-3---0-2-3---0-2-3--------------|    
    

d|-------0-------0--0-------0-------0-------0--0-----------------|    
B|--------------------------------------------------------------2|    
G|-0-2-3---0-2-3------0-2-3---0-2-3---0-2-3---------------2-1-2--|    
D|-----------------------------------------------2--2-1-2--------|    


d|-2-7-6-5--4-3----------10--------7-----------------------------|    
B|------------3--------8---------5------3------------------------|    
G|-------------------8---------6---------------------------------|    
D|-----------------8---------7--------0--------------------------|    

Repetir a parte A  

Parte B:   

d|-------4-3-2-1-0-2------------7-6-5-4-2-1-0----4-5-6-7-6-5-4-5-|    
B|-------------------0-------------------------------------------|    
G|-2-1-2-------------1----2-1-2----------------------------------|    
D|-------------------0-------------------------------------------|    


d|-6-7-6-5-4-5-6-7-6-5-4-2-1-2-4-5-4-2-0---0-2-4-2-0-----------0-|    
B|---------------------------------------2-----------2-0---0-2---|    
G|-------------------------------------------------------2-------|    
D|---------------------------------------------------------------|    


d|-2-0-----------------------------4-7-12------------------------|    
B|-----2-0-------0---------------3-------------------------------|    
G|---------2-1-2---2-0---------2---------------------------------|    
D|---------------------4-2-0-4-----------------------------------|    


d|-------4-3-2-1-0-2------------7-6-5-4-2-1-0----12-12-12-12-10--|    
B|-------------------0-------------------------------------------|    
G|-2-1-2-------------1----2-1-2----------------------------------|    
D|-------------------0-------------------------------------------|    


d|-------------------------0-2-4-2-0---0-2-0---0------------10---|    
B|-10--------------------1-----------2-------2------------8------|    
G|----11---------------2-------------------------3------8--------|    
D|-------12-11-10--0-4--------------------------------8----------|    


d|-------7-------------------------------------------------------|    
B|-----5------3--------------------------------------------------|    
G|---6-----------------------------------------------------------|    
D|-7--------0----------------------------------------------------|   

Repetir a parte A   

Final:   

d|-3--2--9-------------------------------------------------------|    
B|-3--2--7-------------------------------------------------------|    
G|-1--0--7-------------------------------------------------------|    
D|-3--2--7-------------------------------------------------------|   


  

cifra enviadacorrigido por:leandrocopo
enviado porenviada por:Acelot
top 5 | waldir azevedo
top mpb
Outras músicas do artista letras do(a) Waldir Azevedo
Top cifras » Top artistas »
Anuncie Termos de Uso Política de Privacidade Material de DivulgaçãoFale Conosco
Petaxxon Comunicação Online
Cifras.com.br - Melhor e mais completo site de cifras e tablaturas do Brasil
Mais de 1 milhão de acordes de músicas cadastradas desde 2003
As informações contidas no nosso site são colaborações de seus usuários e podem conter erros, sendo assim, não nos responsabilizamos sobre nenhuma destas.
R7 Música
close
menos
mais
close
Cor dos acordes:

Cor da letra:

 

save
close
close
 
redimensionar