» Cifras.com.br » Letras de músicas » Notícias » TV Cifras » Guitar Pro » Gospel
Logo Cifras.com.br

Início » MPB » Waldir Azevedo » Brasileirinho »

Delicado

Waldir Azevedo

Delicado

Waldir Azevedo Escute esta e outras músicas enquanto navega no Cifras

Ano: 2009 - Album: Brasileirinho

Autor: (Waldir Azevedo)

Tom

Formatação

colunas A+ A- cores

Instrumento

cifras tablaturaver outros instrumentos

Nível

Iniciante

Nível: Iniciante

Transcrição

enviada por gago


corrigida por Acelot

  
Parte A:

d|-----12---12---9---9---12---12---9---9---12---12-11-10---9---------|
B|---0----0----0---0---0----0----0---0---0----0----------0-----------|
G|-------------------------------------------------------------------|
D|-------------------------------------------------------------------|

d|-----7---7---4---4---7---7---4---4---6---6--2----------2---4-6-4---|
B|---2---2---2---2---2---2---2---2---3---3---------------------------|
G|-------------------------------------------------------------------| 
D|----------------------------------------------2----0-1-2-----------|

d|-2-0-------------2-1-0-----0-2-0-----------------------------------|
B|-----2-0---0-2---------2---------2-0-------------------------------|
G|---------2---------------------------2-1---1-2-----------2---------|
D|-----------------------------------------4-------0-1-2-3-----------|

d|------------------------------------0-2-4-0-4-6-0-6-9-0-9-12-0-9-12|
B|-0-1-0----------------------------0--------------------------------|
G|-------2-0----------------------1----------------------------------|
D|-----------3-2-0-2-3--0-1-2-0-2------------------------------------|

d|-0---12---12---9---9---12---12---9---9---12---12-11-10-9-----------|
B|---0----0----0---0---0----0----0---0---0----0----------------------|
G|-------------------------------------------------------------------|
D|-------------------------------------------------------------------|

d|---7---7---4---4---7---7---4---4---6---6--2----------2---4-6-4-----|
B|-2---2---2---2---2---2---2---2---0---0-----------------------------|
G|-------------------------------------------------------------------|
D|------------------------------------------2----0-1-2---------------|

d|-2-0-------------2-1-0-----0-2-0-----------------------------------|
B|-----2-0---0-2---------2---------2-0-------------------------------|
G|---------2---------------------------2-1---1-2-----------2---------|
D|-----------------------------------------4-------0-1-2-3-----------|

d|--------------------------------4-6-4-2-0--------------------------| 
B|-0-1-0------------------------------------2-0----------------------| 
G|-------2-0------------------------------------2--------------------| 
D|-----------3-2-0-2-3----0-1-2--------------------------------------|



Part B:

d|-7-2-7-2-7---12-7-12-7-12--9--9-10-12-10-9----------------5--------|
B|-5-1-5-1-5---10-6-10-6-10--9---------------10-9-12-11-10--5--------|
G|-------------------------------------------------------------------|
D|-------------------------------------------------------------------|

d|-5-7-8-7-5------------------2---0-2-3-2-0-----0--------------------|
B|-----------6-5-8-7-6----------------------1-0---2-1--0--------1-0--|
G|-----------------------------------------------------2------2------|
D|----------------------0-1-2--------------------------1--1-4--------|

d|----------7--2--7--2--7---12--7--12--7--12-------------------------|
B|----------5--1--5--1--5---10--6--10--6--10-------------------------|
G|-3-2-1-------------------------------------------------------------|
D|-------------------------------------------2/6-6/9-9\-2/6-6/9-9\---|

d|----------------------------------1-2-3-2-0------------------------|
B|---------------------------------------------1-0-------------------|
G|-------------------------------------------------2-----------------|
D|--2/7-7/10-10\--2/7-7/10-10\9-9------------------------------------|


FInal:


d|------------------------------4-6-4-2-0-------3-5-7-5-3-2-0-2-3-2-0|
B|-0-1-0---------------------------------2-0-------------------------|
G|--------2-0---------------------------------2----------------------|
D|------------3-2-0-2-3--0-1-2---------------------------------------|


d|---------------4-6-4-2-0---------------9---------------------------| 
B|-1-0---------------------2-0-----------5---------------------------| 
G|-----2-0---------------------2-------------------------------------|
D|---------3-2-------------------------------------------------------|



 
  

top cifras waldir azevedo
top cifras mpb
ver mais cifras desse artista var letras desse artista
Top cifras » Top artistas »
Anuncie no Cifras Termos de Uso Política de Privacidade Material de DivulgaçãoFale Conosco
Petaxxon Comunicação Online
Cifras.com.br - Melhor e mais completo site de cifras e tablaturas do Brasil
Mais de 1 milhão de cifras cadastradas desde 2003
As informações contidas no Cifras.com.br são colaborações de seus usuários e podem conter erros, sendo assim, não se responsabiliza sobre nenhuma destas.
R7 Música
close
 
redimensionar