» Cifras.com.br » Letras de músicas » Notícias » TV Cifras » Guitar Pro » Gospel

Início » MPB » Waldir Azevedo » Brasileirinho »

Pedacinhos do Céu

Waldir Azevedo

Pedacinhos do Céu

Waldir Azevedo Escute esta e outras músicas enquanto navega no Cifras

Ano: 2009 - Album: Brasileirinho

Autor: (Waldir Azevedo)

Tom

Formatação

colunas A+ A- cores

Nível

Avançado

Nível: Avançado

Transcrição

enviada por gago


corrigida por Acelot

  
Intro: 

d|-12--0-11-12-0-10-11-0-9-10-0-8-9-0-7-8-0-6-7-0-5-6-0-4-5-0-3-4-| 
B|----------------------------------------------------------------| 
G|----------------------------------------------------------------| 
D|----------------------------------------------------------------| 

d|-0-2-3-0-1-2-0---0-----------------------------------0-4-7/12-12-0-| 
B|---------------1---1---1---------------------------1---------------| 
G|---------------------2---2---2-----2-----2-------2-----------------| 
D|---------------------------4---4-2---2-1---1-0-4----------------0--| 

Parte A: 

d|---9----7-5-0---------------------10---9-7-------5---7-5-4-| 
B|-0------------0---3~~~-2-1-0---5-----------5-----4---4-4-3-| 
G|----------------0----------------------------5-------------| 
D|-----------------------------------------------7-----------| 

d|---------5-----------4--2-4-2-5-4-3-2---7--9-7-5--7-5-5--7-5-4-| 
B|-0-1-2-3-----0-1-2-3----------------1---5--5-5-5--5-5-4--4-4-3-| 
G|---------------------------------------------------------------| 
D|---------------------------------------------------------------| 


d|---9----7-5-0---------------------10----9-7-------5---7-5-4-| 
B|-0------------0---3~~~-2-1-0---5------------5-----4---4-4-3-| 
G|----------------0-----------------------------5-------------| 
D|------------------------------------------------7-----------| 

d|-7--7-7-7--5-7-5-3-0----------------0-3-5-7-9-7-5-4-5-7-5-4-5-----| 
B|---------------------0------------0---------------------------4~~-| 
G|--------------------------------0---------------------------------| 
D|-----------------------0-1-2-3------------------------------------| 

d|-----------2-0-----5---------0-----| 
B|---------0-----0---4---------------| 
G|-------0---------0-3-------2-----0-| 
D|---0-2-------------5---0-4-----0---| 

Parte B: 

d|---------------------------0--------------------5------5-----5-| 
B|-----0-------0-----0-----0---2-1-------1-0---------------------| 
G|--------------------------------------2------3-4----3-4---3-4--| 
B|-1-2-----1-2---1-2---1-2-----------4---------------------------| 

D|-9-7-5---7-5-4---7-6-5-4-3---------0-1-2-3---2-0--------------| 
B|-----5---5-5-4---------------0-1-2---------------0------------| 
G|---------------------------------------------------1--------1-| 
B|------------------------------------------------------2-1-2---| 

d|---0-2-3-2-1-0-----------------2--2-2-2-0---------------5-4-2---| 
B|-0-------------2-1-0-3~~2--1--------------1-0-2-------2-------2-| 
G|----------------------------------------------3-----3-----------| 
D|----------------------------------------------4---4-------------| 

d|-------------------1-4/10-10-9-| 
B|-----------------0-----------7-| 
G|-3-------------2-------------8-| 
B|---4-3-2-1---4-----------------| 

d|---------------------------0--------------------5------5-----5-| 
B|-----0-------0-----0-----0---2-1-------1-0---------------------| 
G|--------------------------------------2------3-4----3-4---3-4--| 
B|-1-2-----1-2---1-2---1-2-----------4---------------------------| 

D|-9-7-5---7-5-4---7-6-5-4-3---------0-1-2-3---2-0--------------| 
B|-----5---5-5-4---------------0-1-2---------------0------------| 
G|---------------------------------------------------1--------1-| 
B|------------------------------------------------------2-1-2---| 

d|---0-2-3-2p0---------------------------2-5-1-4--2---------------| 
B|-0-----------3-1-0-3~-~-2--1-------0-1------------0-----------1-| 
G|-------------------------------1-2------------------0-----------| 
D|------------------------------------------------------4-2-1-2---| 

d|---------------------------| 
B|-0-------------------------| 
G|---2-0-----------0---------| 
B|-------4-2-1-2-4---2--1--0-| 

Parte A: 

d|----7tr--9tr--7tr--5tr--7tr--5tr--5tr--7tr--5tr--4-| 
B|----5tr--5tr--5tr--5tr--5tr--5tr--4tr--4tr--4tr--3-| 
G|---------------------------------------------------| 
D|---------------------------------------------------| 

Parte Final: 

d|--5-4-2-0---------12hn---------------| 
B|----------1-0---------12hn-----------| 
G|--------------2-0----------12hn------| 
D|--------------------------------12hn-| 



  

Top cifras » Top artistas »
Anuncie no Cifras Termos de Uso Política de Privacidade Material de DivulgaçãoFale Conosco
Petaxxon Comunicação Online
Cifras.com.br - Melhor e mais completo site de cifras e tablaturas do Brasil
Mais de 1 milhão de cifras cadastradas desde 2003
As informações contidas no Cifras.com.br são colaborações de seus usuários e podem conter erros, sendo assim, não se responsabiliza sobre nenhuma destas.
R7 Música
close
 
redimensionar