» Cifras.com.br » Letras de músicas » Notícias » TV Cifras » Guitar Pro » Gospel

Início » Gospel » Regis Danese » Compromisso »

Faz Um Milagre Em Mim

Regis Danese

Faz Um Milagre Em Mim

Regis Danese Escute esta e outras músicas enquanto navega no Cifras

Ano: 2008 - Album: Compromisso

Autor: (Kelly Danese / Regis Danese)

Formatação

colunas A+ A- cores

Nível

Iniciante

Nível: Iniciante

Transcrição

enviada por jfcandido


   intro :  C7M  Bm7  Em7/9               

G9           D/F#       Em7/9            
Como Zaqueu, Eu Quero Subir           
     C9              G/B            
O Mais Alto Que Eu Puder           
          D/F#        Em7/9           
Só Pra Te Ver, Olhar Para Ti             
      C9                    G/B           
E Chamar Sua Atenção Para Mim           
               C9    G/B           C9          G/B                                        
Eu Preciso De Ti Senhor ,  Eu Preciso De Ti Oh Pai           
              Am      Am/G       F            
Sou Pequeno Demais, Me Dá A Tua Paz            
      C/E    D/F#     G9              
Largo Tudo Pra Te Seguir           
          D/F#                     Em7/9            
Entra Na Minha Casa Entra Na Minha Vida            
                   C9             
Mexe Com Minha Estrutura           
                     G/B           
Sara Todas As Feridas           
                                 D/F#            
Me Ensina A Ter Santidade            
                                   Em7            
Quero Amar Somente A Ti            
                                                   C            
Porque O Senhor É O Meu Bem Maior            
D#(dim)           G9            
Faz Um Milagre Em Mim            


Meio para voltar: G9   D/F#  Em7  Em/D  C9   C/D           


G9           D/F#                  Em9            
Como Zaqueu, Eu Quero Subir           
        C9                    G/B            
O Mais Alto Que Eu Puder           
               D/F#                Em7           
Só Pra Te Ver, Olhar Para Ti             
      C/E                                G/B           
E Chamar Sua Atenção Para Mim           
             C9        G/B           C9         G/B                              
Eu Preciso De Ti Senhor ,  Eu Preciso De Ti Oh Pai           
              Am      Am/G       F            
Sou Pequeno Demais, Me Dá A Tua Paz            
  C/E       D4   D       G9              
Largo Tudo Pra Te Seguir           




     D/F#                          Em7            
Entra Na Minha Casa Entra Na Minha Vida            
                     C9             
Mexe Com Minha Estrutura           
                    G/B           
Sara Todas As Feridas           
                     D/F#            
Me Ensina A Ter Santidade            
                      Em7            
Quero Amar Somente A Ti            
                          C            
Porque O Senhor É O Meu Bem Maior            
C/D           G9      (Am G/B)            
Faz Um Milagre Em Mim       


(Am  G  Em)     D/F#                       Em7            
Entra Na Minha Casa Entra Na Minha Vida            
            (C9  Bm7  Em7)             
Mexe Com Minha Estrutura           
                 G/D           
Sara Todas As Feridas           
                     D/F#            
Me Ensina A Ter Santidade            
               Em7            
Quero Amar Somente A Ti            
                        C9            
Porque O Senhor É O Meu Bem Maior            
               G9            
Faz Um Milagre Em Mim   


   D/F#                          Em7            
Entra Na Minha Casa Entra Na Minha Vida            
              C9             
Mexe Com Minha Estrutura           
                 G/B           
Sara Todas As Feridas           
                   D/F#            
Me Ensina A Ter Santidade            
                    Em7            
Quero Amar Somente A Ti            
                              C9            
Porque O Senhor É O Meu Bem Maior            
             G9                  
Faz Um Milagre Em Mim    


   D/F#                          Em7            
Entra Na Minha Casa Entra Na Minha Vida            
                   C9             
Mexe Com Minha Estrutura           
                     G/D           
Sara Todas As Feridas           
                 D/F#            
Me Ensina A Ter Santidade            
                  Em7            
Quero Amar Somente A Ti            
                               C9            
Porque O Senhor É O Meu Bem Maior            
                G9                  
Faz Um Milagre Em Mim    


Final:  G9  D/F#   C/E  D#dim  G9   



cliche N1 

e------------------2-2-2---------------------------------------- 
B---0h1----------------3-------3-------------------------------- 
G---0----0------2------0-----0---------------------------------- 
D---2-------2---4----------2------------------------------------ 
A---3-----------2----------------------------------------------- 
E----------------------0---------------------------------------- 



cliche N2 


e---0-------2-------3---2---0------------------------------------ 
B---0-------3-------5---3---0---0---1-------3-------------------- 
G---0---0-------0---------------0---0-------0-------------------- 
D-----------------------------------2---2------------------------ 
A-----------------------------------3---------------------------- 
E---0------------------------------------------------------------ 



cliche N3 


e---------------------------------------------------------------- 
B---3-------3-------1---0---------------3------------------------ 
G---0-------0-------0-------2h4p2---0---------------------------- 
D---2---2---2---2---2-------------------------------------------- 
A---3---------------3-------------------2------------------------ 
E---------------------------------------------------------------- 



cliche N4 


e---10------10------8-------------------------------------------- 
B---8-------8-----------12---10h12p10---8---3-------------------- 
G---9---9---9---9------------------------------------------------ 
D---------------------------------------------------------------- 
A-------------------------------------------2-------------------- 
E---8---------------8-------------------------------------------- 




cliche N5 


e---------------------------------------------------------------- 
B---1---0-------------------------------------------------------- 
G---0-------0---------------------------------------------------- 
D---2------------------------------------------------------------ 
A---3------------------------------------------------------------ 
E---------------------------------------------------------------- 




cliche N6 


e--------------------------------------------5---3---2h3--------- 
B---3-------3-------3-------------------------------------------- 
G---2-------2-------2-------2--4--2-----2------------------------ 
D---0---0-------0-------0------------0--0--0--------------------- 
A---------------------------------------------------------------- 
E---3---------------3-------------2------------------------------ 



e----------------------------------------3/5~-------------------- 
B---3-------3-------------0--0-----3-----3/5~--3/5~--3----------- 
G---0-------0----------2--------------0--------2/4~--2----------- 
D---2---2---2---2---0--------------------------------0----------- 
A-------------------------------3-------------------------------- 
E---0------------------------------------------------3----------- 



  

Top cifras » Top artistas »
Anuncie no Cifras Termos de Uso Política de Privacidade Material de DivulgaçãoFale Conosco
Petaxxon Comunicação Online
Cifras.com.br - Melhor e mais completo site de cifras e tablaturas do Brasil
Mais de 1 milhão de cifras cadastradas desde 2003
As informações contidas no Cifras.com.br são colaborações de seus usuários e podem conter erros, sendo assim, não se responsabiliza sobre nenhuma destas.
R7 Música
close
 
redimensionar