» Cifras.com.br » Letras de músicas » Notícias » TV Cifras » Guitar Pro » Gospel
tutoriais

Violao para Iniciantes

Tutoriais > Violão & Guitarra para Iniciantes

enviado por nixbeau




Tablaturas

 

TABLATURAS

 

O QUE É A TABLATURA ?

 

TAB ou Tablatura é um método de escrever arranjos de música para violão, guitarra ou Baixo, usando símbolos, textos e números. Este método é simples e ideal para ser usado na Internet. Contudo a Tablatura não deve ser comparada ou confundida com a Partitura que trás muito mais informações sobre a música e exige um conhecimento mais profundo para ser interpretada.

 

A tablatura mostra as notas que devem ser tocadas nas devidas cordas e casas, também pode informar o tipo de afinação usada na música indicando o uso de capotraste para alterar tom da afinação. A tablatura também pode mostrar alguns efeitos que são usados em solos ou em trechos de uma música como Slides, Bends e outros.

 

 

A tablatura é muito simples de ser interpretada, começamos com 6 linhas (ou 4 para Baixo) que correspondem as corda do instrumento. As cordas estão ordenadas da mais fina para a mais grossa, as letras no lado esquerdo indicam as notas dadas pelas cordas em sua devida afinação.

 

                e------------------------------------------------------

                B------------------------------------------------------

                G------------------------------------------------------

                D------------------------------------------------------

                A------------------------------------------------------

                E------------------------------------------------------

 

Números serão escritos nas linhas indicando a casa no braço do instrumento onde deve ser precionada com a mão esquerda, note que a tablatura não indica com qual o dedo da mão esquerda que será usado para pressionar a corda.

 

                e--------------------------------------------

                B--------------------------------------------

                G--------------------------------------------

                D--------------------------------------------

                A--------------------------------------------

                E---0--1--2--3--4----------------------------

 

Execute o trecho acima, tocado uma nota de cada vez começando pelo número 0 que indica a corda solta, depois o 1 indica a primeira casa, depois o 2 indicando a segunda casa, e assim por diante.

 

 

 

PARA TREINAR:

 

Temos logo abaixo uma música muito tradicional "Parabéns", onde os dedos da mão esquerda serão Indicador para casa 5 e anular para casa 7.

 

Trecho de "Parabéns"

        e:|-------------|-------------|-----------------|---------------|

        B:|-------------|-------------|-----------------|---------------|

        G:|-------------|-------------|-----------------|---------------|

        D:|---------5-4-|---------7-5-|-----9-5-5-5-4-2-|-10-10-9-5-7-5-|

        A:|-5-5-7-5-----|-5-5-7-5-----|-5-5-------------|---------------|

        E:|-------------|-------------|-----------------|---------------|

 

        Este exemplo mostra notas tocadas uma a cada tempo.

 

 

        Tente executar estes outros exemplos:

 

Trecho de "Take a brath away" (Trilha sonora de Ases Indomáveis)

e:|-----------------|-----------|-----------|-----------|--------------|

B:|-----------------|-----------|-----------|-----------|--------------|

G:|-----------------|-----------|-----------|-----------|--------------|

D:|--------0--2--0--|-----0-----|-----------|-----------|--------0--2--|

A:|--0--2-----------|--0-----4--|--0--4--2--|-----2--4--|--0--2--------|

E:|-----------------|-----------|-----------|--2--------|--------------|

 

Trecho de "Jingle Bells" (Música Natalina)

e:|--------------|----------------|--------------------------------|

B:|--------------|----------------|----------3-3-3-33-5-3-------3--|

G:|-----4-2-0----|-------4-2-0----|----5-4-2--------------5-2-0----|

D:|---0-------0--|--00-0-------2--|--2-----------------------------|

A:|--------------|----------------|--------------------------------|

E:|--------------|----------------|--------------------------------|

 

 

Observe agora alguns exemplos onde teremos duas notas ou mais tocadas de uma só vez no mesmo tempo.

 

 

Trecho de "Asa Branca"

e:-------------0---0-----------|--------------0----0----------|

B:------0---2---------2--3---3-|------0---2------------3---2--|

G:--2--------------------------|--2---------------------------|

D:-----------------------0-----|------------------------------|

A:----------0------------------|----------0----------------0--|

E:-----------------------------|-------------------0----------|

            |            |                |        |        |

 

| = Duas notas tacadas no mesmo tempo

 

Trecho de "Carruagens de fogo" (Tema das olimpíadas)

e:--------0--2--0------|--------0--2--0-----------------------|

B:-----3------------2--|-----3--------------------------------|

G:--2------------------|--2-----------------------------------|

D:-----0---------------|-----0--------------------------------|

A:--------------0------|--------------0-----------------------|

E:---------------------|--------------------------------------|

       |        |            |        |

 

No trecho abaixo encontraremos 3 notas tocadas ao mesmo tempo

 

Trecho de "Eu sei que vou te amar"

e:--------------------|-------------------------------------|

B:-----0--0--0--0--0--|--------0--1--0-----1--1--1--1--1----|

G:--0--0--------------|-----2-----------2--2----------------|

D:--------------------|--1-----------------0----------------|

A:-----3--------------|-------------------------------------|

E:--------------------|-------------------------------------|

       |                                   |

 

Temos que levar em conta um conhecimento prévio das musicas para que a tablatura possa realmente nos mostrar trechos corretos. Estando familiarizado você tem uma noção do ritmo e do tempo que é executada cada nota.

 

 

Temos agora um exemplo que demonstra uma batida em um acorde, no exemplo, o acorde de La Maior. Teríamos uma batida envolvendo todas as notas do acorde.

 

                                     A (La Maior)

                E----0---------------------------------------

                B----2---------------------------------------

                G----2---------------------------------------

                D----2---------------------------------------

                A----0---------------------------------------

                E--------------------------------------------

 

 

REPRESENTANDO UMA BATIDA:

 

Observe na tablatura abaixo uma seqüência de acorde em tom de La onde foi usado a batida de Valsa, onde o Indicador, médio e anular são tocados juntos.

 

 

 

 

Ritmo de Valsa

              

     B     123     123

          (___)   (___) 

 

 

        (___) = dedos 1, 2 e 3 juntos

 

TABLATURA:

 

     A                      E         A         D           A

e:------0--0-------0--0-------0--0-------0--0------2--2-----0--|

B:------2--2-------2--2-------0--0-------2--2------3--3-----2--|

G:------2--2-------2--2-------1--1-------2--2------2--2-----2--|

D:----------------------------------------------0--------------|

A:---0----------0---------------------0---------------------0--|

E:--------------------------0----------------------------------|

 

 

REPRESENTANDO UM DEDILHADO:

 

Para demostrar usaremos o modelo de dedilhado mais simples onde usamos basicamente um movimento de descida. Baixo , indicador, médio e anular.

 

                                B   1   2   3

 

Seqüência de acordes para a execução:

                Am - A7 - Dm - Am - E - E7 - Am

 

Tablatura do dedilhado:

   Am             A7              Dm             Am

e--------0------0-------0-------0-------1------1-------0--------0-

B------1------1-------2-------2-------3-------3------1--------1---

G----2------2-------0-------0-------2-------2------2--------2-----

D---------------------------------0-------0-----------------------

A--0-------0------0-------0----------------------0--------0-------

E-----------------------------------------------------------------

 

   E                E7               Am                              

e---------0-------0-------0-------0--------0-------0-------------

B-------0-------0-------3-------3--------1-------1---------------

G-----1-------1-------1-------1--------2-------2-----------------

D----------------------------------------------------------------

A------------------------------------0-------0-------------------

E--0--------0-------0--------0-----------------------------------

 

 

Observe abaixo um exemplo de bordões muito usados no Rock, repare também os acordes que aparecem indicados na parte superior da tablatura.

 

 

 

 

 

 

 

Trecho do Riff inicial de "Smoke on The Water"

 

    G  Bb C     G  Bb C# C     G  Bb C  Bb G

e:-----------|--------------|-----------------|

B:-----------|--------------|-----------------|

G:-----------|--------------|-----------------|

D:-----3--5--|-----3--6--5--|-----3--5--3-----|

A:--5--1--3--|--5--1--4--3--|--5--1--3--1--5--|

E:--3--------|--3-----------|--3-----------3--|

 

Agora temos um solo de uma música dos Raimundos onde as cifras dos acordes usados como base para o solo, aparecem na parte superior da tablatura.

 

Trecho de um Solo de "I saw you saying"

         A F#m    A                 F#m

E:------------------------------------

B:-5-2---2--------2-2-2-2-2-----------

G:-----2------2-4-----------4-2-2/4-2-

D:----------4-------------------------

A:------------------------------------

E:------------------------------------

 

No riff inicial de "Pra ser sincero" dos Engenheiros do Haway abaixo, temos duas tablaturas, uma para a guitarra e outra para o baixo

    D A D E F# E D A B G B D C#    B F# B C# D C# B A B A G F# E

e:------------------------------|---------------------------------|

B:------------------------------|---------------------------------|

G:------------------------------|---------------------------------|

D:--0---0-------0----------0----|------------0--------------------|

A:----0-----------0--2---2---4--|--2----2--4---4--2-0-2-0---------|

E:--------0-2-0--------3--------|----2--------------------3-2--0--|

 

    D                G       A     B                  G        A        

G:------------------------------|---------------------------------|

D:--0---------------------------|---------------------------------|

A:------------------------------|--2---------------------------0--|

E:-------------------3-------5--|---------------------3-----------|

 

Este exemplo mostra a sincronia dos dois instrumentos, exibindo o tempo das notas do baixo sendo executadas de acordo com as notas da guitarra.

 

 

SÍMBOLOS

 

Temos vários efeitos aplicáveis no instrumento, principalmente em solos.

Veja alguns exemplos abaixo e como são aplicados:

Símbolos:

                      h - hammer on

                      p - pull off

                      b - bend string up

                      r - release bend

                      / - slide up

                      \ - slide down

                      v - vibrato (algumas vezes pode ser ~)

                      t - tap

                      x - muffled strings

 

Hammer on (h)

Toque a nota e martela com o dedo da mão esquerda.

 

Trecho de "Wish You Were Here" do grupo Pink Floyd

   G

e-------------3---3--3---3--3-----------------3--3---3----3--

B-------------3---3--3---3--3--------------3--3--3---3----3--

G-------------0---0--0----------0----------0--0--0---0-------

D--------0-2-----------------------2--0----------------------

A----0h2-----------------------------------------------------

E--3---------------------------------------------------------

 

A nota na segunda casa quinta corda e apenas martelada com o dedo médio da mão esquerda.

 

 

Pull off (p)

 

Toque a nota e puxe para a (cujo o dedo correspondente já deve estar previamente posicionado.

 

Trecho do Riff inicial de "La Bamba" do grupo Los Lobos

 e |----------------------------|----------------------------|

 B |----------------------------|----------------------------|

 G |-------------0--------2p0---|----------------------------|

 D |----------------2--3--------|-------33220----------------|

 A |---0--2--3------------------|--0-2-----------------------|

 E |3---------------------------|3---------------------------|

 

 

Bend (b)

 

Levantar a corda o pedido (1/2 tom, etc.) ou até a nota indicada.

 

 

Release Bend (r)

 

Levante a corda o indicado e volte à tensão original.

 

 

                Slide

 

                Toque a nota e escorregue o dedo até a nota seguinte.

 

                Slide Up    (/) - Em sentido crescente das casas

 

                Slide Down  (\) - Em sentido decrescente das casas

 

 

 

 

 

 

 

 

Observe a introdução de "Tears In Heaven" (versão acústica do Unplugged Eric Clapton).

e]-----------------------]---------------]----------------]-------------]

B]-------2/3\2---5---5-2-]--2---2----2---]3---3---3---3---]2---2---2---2]

G]-------------2-4---4-2-]--2---2----2---]2---2---2---1---]2---2---2---2]

D]-----2-----------------]---------------]----------------]-------------]

A]---0-------------------]---------------]----------------]0-0---0---0--]

E]0h2------------4-4---2-]2---2-0--0---0-]2-2---2-0---0---]-------------]

 

Pequeno solo executado por um segundo violão

e]---5/75---------]

B]-------5/75---5-]

G]-----------4/6--]

D]----------------]

A]----------------]

E]----------------]

 

 

 

 

Vibrato (v)

 

Toque a nota e execute um "vibrato" com o própio dedo.

 

 

Tap (t)

 

Tapa dado sobre as cordas elaborado com a mão direita.

 

Trecho de "More than Words" do grupo Extreme

   G                 G/C               Am

e--3--3-------3--3---3--3-------3--3---0--0-------0--0-----

B--3--3-------3--3---3--3-------3--3---1--1-------1--1-----

G--0--0-------0--0---0--0-------0--0---0--0-------0--0-----

D----------------------------------------------------------

A--------------------3--3-------3--3---0--0-------0--0-----

E--3--3-------3--3-----------------------------------------

         Tap               Tap               Tap

 

       C     D D4  G

e------0--0--2-3---3--3------------------------------------

B------1--1--3-3---3--3------------------------------------

G------0--0--2-2---0--0------------------------------------

D------------0-0-------------------------------------------

A------3--3------------------------------------------------

E------------------3--3------------------------------------

  Tap

 

 

Muffled Strings (x)

 

Toque apenas encostando os dedos da mão esquerda nas cordas, obtendo um som percursivo.

 

Este efeito e muito usado em Heavy Metal onde usamos guitarra com distorção.

 

 

Trecho de "Smells Like Teen Spirit" do grupo Nirvana

      F          Bb      G   G#         C#   G

e|----------------------------------------------|

A|----------------------------------------------|

D|---------------3-3--------------------6-6-----|

G|----3-3-3-xxxx-3-3-----5---6-6-6-xxxx-6-6--5--|

B|----3-3-3-xxxx-1-1-----5---6-6-6-xxxx-4-4--5--|

E|----1-1-1-xxxx---------3---4-4-4-xxxx------3--|

 

Após as três primeiras batidas sobre F os dedos continuam nesta formação, mas agora apenas encostados de leve sobre as cordas sem pressionar as casas. O mesmo acontece na posição de G#.

 

 



Voltar
Avançar
Top cifras » Top artistas »
Anuncie no Cifras Termos de Uso Política de Privacidade Material de DivulgaçãoFale Conosco
Petaxxon Comunicação Online
Cifras.com.br - Melhor e mais completo site de cifras e tablaturas do Brasil
Mais de 1 milhão de cifras cadastradas desde 2003
As informações contidas no Cifras.com.br são colaborações de seus usuários e podem conter erros, sendo assim, não se responsabiliza sobre nenhuma destas.
R7 Música