» Cifras.com.br » Letras de músicas » Notícias » Vídeos » Guitar Pro » Gospel » Login » Cadastre-se
tutoriais

Arpejos para qualquer um entender...

Tutoriais > Riffs e Escalas de Guitarra

enviado por brenoteixeira

Arpejos Maiores

Os arpejos possuem a mesma formação dos acordes.
Portanto o Arpejo Maior será formado por T 3 5.
A diferença entre os dois é que no arpejos a notas são tocadas sucessivamente, ou seja, uma depois da outra:


|-5-|---|---|---|---|-T-|---|
|---|---|-3-|---|---|---|---|
|---|---|-T-|---|---|---|---|
|---|---|-5-|---|---|---|---|
|-T-|---|---|---|-3-|---|---|
|---|---|---|---|---|---|---|


Não esqueça de respeitar o sentido das palhetadas para obter um resultado mais eficaz:

Exemplo G: (sol si ré)

e-----------------12h15p12-----------------
B--------------12----------12--------------
G-----------12----------------12-----------
D--------12----------------------12--------
A--10-14----------------------------14-10--
E------------------------------------------
c b b b b b c c c c b - Palhetada


b-baixo
c-cima
h-hammer on
p-pull off

Dúvidas: http://www.brenoteixeira.com.br

Cifras
Buscar
Twitter do Cifras RSS