» Cifras.com.br » Letras de músicas » Notícias » TV Cifras » Guitar Pro » Gospel
Logo Cifras.com.br
tutoriais

escala pentatonica

Tutoriais > Violão & Guitarra para Iniciantes

enviado por gui_guitar

Vou passar essa escala pentatonica para vcs. Com ela vc cria uma noção muito grande para improviso, riffs e solos. Isso depende da sua criatividade e bom gosto em relação a sua própria musicalidade.


E-------3-------5----------------------------------
A-------3-------5---/--7---------------------------
D---------------5------7---------------------------
G---------------5------7---/---9--------------------
B--------------------------8------10---------------
E--------------------------8------10---/--12--------

então como vcs podem ver na tab, essa é a pentatonica.
ela é maior e menor. exemplo
se o tom da musica é em dó maior vc vai ver a corda lá e acha a nota dó e começa o desenho da escala.
Exemplo:

tom maior dó maior (tônica)
--------------------------

obs: dedo um em dó maior
E--------3------5-------------------menor-----------
A--------3dó----5------7------------maior-----------


tom menor lá menor (tônica)

Exemplo:

obs:dedo três em la menor
E--------3------5lá menor-----------------------------
A--------3------5-------7-----------------------------


Se vc perceber é o mesmo desenho da escala de dó, então essa pentatonica vale para todas as notas maiores e menores e no braço todo de sua guitarra.
Vou postar outro tutorial com as inplementações dessa escala, (maior, menor, bluesnote e outros).
Espero que vc tenha entendindo, qualquer dúvida meu email é guig12@gmail.com.
É isso ai guitarristas, sucesso para todos vcs e não esqueçam de estudar muito!
Abraços,

Guilherme.

Top cifras » Top artistas »
Anuncie no Cifras Termos de Uso Política de Privacidade Material de DivulgaçãoFale Conosco
Petaxxon Comunicação Online
Cifras.com.br - Melhor e mais completo site de cifras e tablaturas do Brasil
Mais de 1 milhão de cifras cadastradas desde 2003
As informações contidas no Cifras.com.br são colaborações de seus usuários e podem conter erros, sendo assim, não se responsabiliza sobre nenhuma destas.
R7 Música