Cifras e Tablaturas
Hateen

Hateen

Minha Melhor Invenção

Cifras Cancelar Versão de Impressão Print

Hateen - Minha Melhor Invenção

Tom: F#

  			 Onde estiver (*) dedilhe assim: 



F#*    C#* 
Só eu sei                               Bbm*       G#* 
O quanto é difícil aceitar             F#      C#      Bbm     G# 
F#*         C#*                      e|-2-2---|-4-4---|-1-1---|-4-4---| 
  Eu já tentei                       B|-2--2--|-6--6--|-2--2--|-1--1--| Dedilhado 
         Bbm*          G#*           G|-3---3-|-6---6-|-3---3-|-1---1-|  'piovan' 
Mas não consigo acreditar            D|-4-----|-6-----|-3-----|-1-----| 
                                     A|-4-----|-4-----|-1-----|-3-----| 
   F#            C#                  E|-2-----|-4-----|-1-----|-4-----| 
Que tudo um dia tem um fim 
   Bbm  
E o que acaba 
G#             F#        C# 
Vai viver pra sempre em mim 
   G# 
Eu sei 
              F# 
Um dia após o outro 
   C#     G# (pausa) 
Eu vi, culpei mesmo sem ter motivo 

 
C#                 G# 
 Nada vai ser igual 
               Fm    F# 
Como a gente quer 
               C# 
O impossível vai ser 
              G# 
Sempre a minha opção 
                Fm    F# 
Minha melhor invenção 
                  Fm   F# 
É acreditar que você  

vai estar pra sempre aqui 

C# C# G# G# F# F# 2x 

e|---------------------------|------------------|----------------------| 
B|---------------------------|------------------|-------------------9--| 
G|-10-10-10-8-6-8-10-8-6-(2x)|-8-8-8-6-5-6-8-6--|-10-10-10-8-6-8-10----| 
D|---------------------------|------------------|----------------------| 
A|---------------------------|------------------|----------------------| 
E|---------------------------|------------------|----------------------| 

e|---------------------------|-----------------------------------| 
B|---------------------------|---------7--------------7----------| 
G|-10-10-10-8-6-8-10-8-6-(2x)|-10-8-10---10-8-10-8-10---10-8-10~-| 
D|---------------------------|-----------------------------------| 
A|---------------------------|-----------------------------------| 
E|---------------------------|-----------------------------------| 

F#         C# 
  E eu pensei 
   Bbm       G#           F# 
O modo de poder voltar e ti 
       C#            Bbm         G# 
E te dizer o que eu nunca fui capaz 
     F#              C# 
Que eu vivo e morro por você 
  Bbm            G# 
E que sua falta vai viver 
    F#        C# 
Pra sempre em mim 
    G#                 F# 
Eu sei um dia após um outro 
   C#      G# 
Eu vi, culpei mesmo sem ter motivo 

Refrão 

Solo C# C# G# G# F# F# 2x 

e|-12-12--12-10-8-10-12-10~-----10------------------------------------9----- 
B|---------------------------13----13---14-14--14-12-10-12-14-12~--12---12-- 
G|--------------------------------------------------------------------------  Solo  
D|-------------------------------------------------------------------------- 'piovan' 
A|-------------------------------------------------------------------------- 
E|-------------------------------------------------------------------------- 

e|-------------------------------------------------------------12-12-10-10-9----11-11~- 
B|-14~-14~-14~-14-14b-15b-14~-14-14~-14-14~-14-14~-14b~--10-10---------------10-------- 
G|------------------------------------------------------------------------------------- 
D|------------------------------------------------------------------------------------- 
A|------------------------------------------------------------------------------------- 
E|------------------------------------------------------------------------------------- 

e|-------12-12-10-10-9----11-11~---11-9--------------10----------------10----------------------| 
B|-10-10---------------10---------------10--13-11-13----13-11-13-11-13----13-11-13b--13-12-10~-| 
G|---------------------------------------------------------------------------------------------| 
D|---------------------------------------------------------------------------------------------| 
A|---------------------------------------------------------------------------------------------| 
E|---------------------------------------------------------------------------------------------| 

 
refrão
C# G# Nada vai ser igual Fm F# Como a gente quer C# O impossível vai ser G# Sempre a minha opção Fm F# Minha melhor invenção C# G# Nada vai ser igual Fm F# Como a gente quer C# O impossível vai ser G# Sempre a minha opção Fm F# Minha melhor invenção Fm F# É acreditar que você Fm F# vai estar pra sempre aqui C# Mesmo que eu saiba que não
fixar
fixar inscrever-se

enviado porenviado por: EvelynDookie
cifra enviadaCorrigida por: sem correções
afinação

Toque com outra afinação
Modifique a corda abaixo ou utilize um dos presets.

Dacorde
Aacorde
braço violão
Gacorde
Bacorde
logo top cifrasComente
ico música do artistaMúsicas deste artista
ico curtiuCurtiu?
ico destaqueDestaque
Petaxxon Comunicação Online

Cifras.com.br - Melhor e mais completo site de cifras e tablaturas do Brasil Mais de 1 milhão de acordes de músicas cadastradas desde 2003
As informações contidas no nosso site são colaborações de seus usuários e podem conter erros, sendo assim, não nos responsabilizamos sobre nenhuma destas.

close
menos
mais
close
Cor dos acordes:

Cor da letra:

close
Alinhar acordes a direita Alinhar acordes a esquerda Alinhar acordes em baixo Alinhar acordes no topo
close
  Mostrar todos os acordes Esconder acordes muito fáceis Esconder acordes fáceis Esconder acordes intermediários
redimensionar
glossário