Cifras e Tablaturas
Jorge e Mateus

Jorge e Mateus

Tem Nada A Ver / Te Cuida Coração

Ano: 2010
Album : Jorge & Mateus - Ao Vivo Sem Cortes

Cifras Cancelar Versão de Impressão Print

Jorge e Mateus - Tem Nada A Ver / Te Cuida Coração

Tom: E

  • 0:00 / 0:00
  			Intro:  

E|------------------------------------9--7--5----------| 
B|-------------9-10--12--9---13-9----10--9--7-----7/9--| 
G|------8-9-11-----------------------------------------| 
D|---11------------------------------------------------| 
A|-----------------------------------------------------| 
E|-----------------------------------------------------| 

E|-12----12------------------------------------------12---11---9---7----| 
B|----9---------------9---------------9-------12------------------------| 
G|----------------9h11---11-------9h11--11b9-------13----11--11---8-----| 
D|------------9h11------------9h11--------------------------------------| 
A|----------------------------------------------------------------------| 
E|----------------------------------------------------------------------| 

Acompanhamento do Solo: E  G#7  A  E  F#7  B7 

          E 
Alguém me disse que você falou  
         B9 
Que acha graça e tem pena de mim  
           A                                 B9 
Que não me ama que o nosso caso já chegou ao fim  (lick 1) 
       E 
Ao telefone não atende mais  
          B9 
Que pra você agora tanto faz  
        A 
Se é verdade que você não quer  
         B9 
Responda se puder  
           C#m              G#7 
Quem é que liga no meio da noite  
               C#m 
Diz que está sozinha  
                    E7                    A 
Quem é que nos meus braços fala que é só minha  
              B7                 E  B7 
E chora de emoção na hora do prazer  
          C#m                 G#7 
Porque será que você não assume  
                C#m 
Que eu sou seu homem  
               E7                   A 
Porque o tempo todo fala no meu nome  
               B7                   E  E7 
Confessa que você não sabe me esquecer  
               A 
Tem nada a ver  
              B7     G#7         C#m 
Você é quem está fugindo da verdade  
               E7              A 
Parece que tem medo da felicidade  
                 B7                    E  E7 
Você diz que não,   teu corpo diz que sim  
               A               B7 
Tem nada a ver,  a boca que me beija  
      G#7        C#m 
A mão que me apedreja  
                  E7                A 
Se deita em minha cama depois me difama  
                   B7                    E  B7 
Diz que não me quer   mas vive atrás de mim 

- Repete tudo desde a introdução (inclusive o solo). 

( E  E4 ) 

Riff 1:             Riff 2: 
E|-----------|     E|----------------| 
B|---3h5-5h4-|     B|---3h5-5h3h4h2--| 
G|-3---------|     G|-3--------------| 
D|-----------|     D|----------------| 
A|-----------|     A|----------------| 
E|-----------|     E|----------------| 

E                   (Riff 1) 
Já cansei de avisar 
B9              (Riff 1) 
Pro meu coração 
A9                   (Riff 1) 
Pra ele tomar cuidado 
E              (Riff 2) 
Com essa paixão 
E                     (Riff 1) 
O amor quando é demais 
B9               (Riff 1) 
É um campo minado 
A9                  (Riff 1) 
Se explodir um adeus 
E                   (Riff 2) 
Coração sai machucado 

(parte 2) 
   G#7               C#m 
O amor é bonito, é gostoso 
          G#7 
Mas é perigoso 
              C#m 
Tem que saber amar 
 F#7                 B 
Ficar sem amor não consigo 
               F#7 
Sei que é um perigo 
            B 
Posso me machucar 
A9            B9 
Vai com calma coração 
 C#m               A9 
Se cuida com essa paixão 

E|-------------| 
B|-------------| 
G|--4----------| 
D|----3-2------| 
A|--------3-2--| 
E|-------------| 

  E 
O amor é lindo e gostoso 
         B7 
Mas é perigoso 
            E 
Te cuida coração       (2x) 

Coro: 

              B 
Coração apaixonado 
          A9 
Só quer amor 
                E 
Não tem medo de nada 
                 E 
Não sabe o que é certo 
                   B7 
Não sabe o que é errado 
Só quer amor 
              E 
Coração apaixonado 

( E  F#m  G ) 

(Repete Parte 2) 

(Coro) 

( A9  G#m  F#m  E9  F#m  G#m  A9  G#m  F#m  E ) 
    	

enviado porenviado por: educastilho
cifra enviadaCorrigida por: sem correções
afinação

Toque com outra afinação
Modifique a corda abaixo ou utilize um dos presets.

Dacorde
Aacorde
braço violão
Gacorde
Bacorde
logo top cifrasComente
ico música do artistaMúsicas deste artista
ico curtiuCurtiu?
ico destaqueDestaque
Petaxxon Comunicação Online

Cifras.com.br - Melhor e mais completo site de cifras e tablaturas do Brasil Mais de 1 milhão de acordes de músicas cadastradas desde 2003
As informações contidas no nosso site são colaborações de seus usuários e podem conter erros, sendo assim, não nos responsabilizamos sobre nenhuma destas.

close
menos
mais
close
Cor dos acordes:

Cor da letra:

close
Alinhar acordes a direita Alinhar acordes a esquerda Alinhar acordes em baixo Alinhar acordes no topo
close
  Mostrar todos os acordes Esconder acordes muito fáceis Esconder acordes fáceis Esconder acordes intermediários
redimensionar
glossário