Cifras e Tablaturas
Atreyu

Atreyu

So Others May (live)

Cifras Cancelar Versão de Impressão Print

Atreyu - So Others May (live)

Tom: C

  			



-----------------------------------------------------------------| 
-----------------------------------------------------------------| 
-----------------------------------------------------------------| 
-----------------------------------------------------------------| 
------------------------------------------------------)-0-0-0-0--| 
-1-0-1-3-4-0-1-0-1-0-1-3-4-0-1-0-1-0-1-3-4-0-1-0-1-0-1--0-0-0-0--| 
                                                        * * * * 



--------------------------------------------------------| 
------------------------------------------------PH------| 
------------------------------------------------3.1-----| 
--------------------------------------------------------| 
----------------------------------------------)---------| 
-1-0-1-3-4-0-1-0-1-0-1-3-4-0-1-0-1-0-1-3-4-0-1----------| 




0:20 

L 
------------------------------------------------------------------------| 
------------------------------------------------------------------------| 
---------------------------------------------------------------7-----13-| 
---------------------------------------------------------------X------X-| 
---------------------------------------------------)-----------5-----11-| 
-000-0-0-0-0-0-0-0---000-0-0-0-0-0-0-0---000000-1-1--0-0-3-6-0---6-0----| 
 ***   *   *   *  |  ***   *   *   *  |  ******      *       *     * 
R 
------------------------------------------------------------------------| 
------------------------------------------------------------------------| 
------------------------------------------------------------------------| 
------------------------------------------------------------------------| 
---------------------------------------------------)-----------5-----8--| 
-000-0-0-0-0-0-0-0---000-0-0-0-0-0-0-0---000000-1-1--0-0-3-6-0---6-0----| 
 ***   *   *   *  |  ***   *   *   *  |  ******      *       *     * 

L 
------------------------------------------------------------------------| 
------------------------------------------------------------------------| 
---------------------------------------------------------------7-----13-| 
---------------------------------------------------------------X------X-| 
---------------------------------------------------)-----------5-----11-| 
-000-0-0-0-0-0-0-0---000-0-0-0-0-0-0-0---000000-1-1--0-0-3-6-0---6-0----| 
 ***   *   *   *  |  ***   *   *   *  |  ******      *       *     * 
R 
------------------------------------------------------------------------| 
------------------------------------------------------------------------| 
------------------------------------------------------------------------| 
------------------------------------------------------------------------| 
---------------------------------------------------)-----------5-----8--| 
-000-0-0-0-0-0-0-0---000-0-0-0-0-0-0-0---000000-1-1--0-0-3-6-0---6-0----| 
 ***   *   *   *  |  ***   *   *   *  |  ******      *       *     * 

L 
------------------------------------------------------------------------| 
------------------------------------------------------------------------| 
---------------------------------------------------------------7-----13-| 
---------------------------------------------------------------X------X-| 
---------------------------------------------------)-----------5-----11-| 
-000-0-0-0-0-0-0-0---000-0-0-0-0-0-0-0---000000-1-1--0-0-3-6-0---6-0----| 
 ***   *   *   *  |  ***   *   *   *  |  ******      *       *     * 
R 
------------------------------------------------------------------------| 
------------------------------------------------------------------------| 
------------------------------------------------------------------------| 
------------------------------------------------------------------------| 
---------------------------------------------------)-----------5-----8--| 
-000-0-0-0-0-0-0-0---000-0-0-0-0-0-0-0---000000-1-1--0-0-3-6-0---6-0----| 
 ***   *   *   *  |  ***   *   *   *  |  ******      *       *     * 



-------------------------------------------------------------------| 
-------------------------------------------------------------------| 
-------------------------------------------------------------------| 
-------------------------------------------------------------------| 
---------------------------------------------------)-----------5---| 
-000-0-0-0-0-0-0-0---000-0-0-0-0-0-0-0---000000-1-1--0-0-3-6-0---6-| 
 ***   *   *   *  |  ***   *   *   *  |  ******      *       *      



0;47 

L 
-------------------------------------------------------------------------------| 
-------------------------------------------------------------------------------| 
-7-7-7-7-7-7-7-7-15-15-15-14-14-14-10-10-7-7-7-7-7-7-7-7-9-9-10-10-12-12-14-14-| 
-X-X-X-X-X-X-X-X--X--X--X--X--X--X--X--X-X-X-X-X-X-X-X-X-X-X--X--X--X--X--X--X-| 
-5-5-5-5-5-5-5-5-13-13-13-12-12-12--8--8-5-5-5-5-5-5-5-5-7-7--8--8-10-10-12-12-| 
-------------------------------------------------------------------------------| 

R 
--------------------------------------------------------------------| 
-101010101010101010101010101010101010101010101010-1313131313131313--| 
-101010101010101010101010101010101010101010101010-1212121212121212--| 
--8-8-8-8-8-8-8-8-8-8-8-8-8-8-8-8-8-8-8-8-8-8-8-8-1010101010101010--| 
--8-8-8-8-8-8-8-8-8-8-8-8-8-8-8-8-8-8-8-8-8-8-8-8-1010101010101010--| 
--------------------------------------------------------------------| 



L 
-------------------------------------------------------------------------| 
-------------------------------------------------------------------------| 
1010101010101010-15-15-15-14-14-14-1010-7-7-7-7-7-7-7-7-10101010-9-9-9-9-| 
-X-X-X-X-X-X-X-X--X--X--X--X--X--X--X-X-X-X-X-X-X-X-X-X--X-X-X-X-X-X-X-X-| 
-8-8-8-8-8-8-8-8-13-13-13-12-12-12--8-8-5-5-5-5-5-5-5-5--8-8-8-8-7-7-7-7-| 
-------------------------------------------------------------------------| 

R 
--------------------------------------------------------------------| 
-101010101010101010101010101010101010101010101010-1313131313131313--| 
-101010101010101010101010101010101010101010101010-1212121212121212--| 
--8-8-8-8-8-8-8-8-8-8-8-8-8-8-8-8-8-8-8-8-8-8-8-8-1010101010101010--| 
--8-8-8-8-8-8-8-8-8-8-8-8-8-8-8-8-8-8-8-8-8-8-8-8-1010101010101010--| 
--------------------------------------------------------------------| 


L 
-------------------------------------------------------------------------------| 
-------------------------------------------------------------------------------| 
-1010101010101010-15-15-15-14-14-14-1010-7-7-7-7-7-7-7-7-9-9-10-10-12-12-14-14-| 
--X-X-X-X-X-X-X-X--X--X--X--X--X--X--X-X-X-X-X-X-X-X-X-X-X-X--X--X--X--X--X--X-| 
--8-8-8-8-8-8-8-8-13-13-13-12-12-12--8-8-5-5-5-5-5-5-5-5-7-7--8--8-10-10-12-12-| 
-------------------------------------------------------------------------------| 

R 
--------------------------------------------------------------------| 
-101010101010101010101010101010101010101010101010-1313131313131313--| 
-101010101010101010101010101010101010101010101010-1212121212121212--| 
--8-8-8-8-8-8-8-8-8-8-8-8-8-8-8-8-8-8-8-8-8-8-8-8-1010101010101010--| 
--8-8-8-8-8-8-8-8-8-8-8-8-8-8-8-8-8-8-8-8-8-8-8-8-1010101010101010--| 
--------------------------------------------------------------------| 


L 
-----------------------------------------------------------------------| 
-----------------------------------------------------------------------| 
1010101010101010-15-15-15-14-14-14-1010--------------------------------| 
-X-X-X-X-X-X-X-X--X--X--X--X--X--X--X-X--------------------------------| 
-8-8-8-8-8-8-8-8-13-13-13-12-12-12--8-8--------------------------------| 
----------------------------------------3-3-3-3-3-3-3-3-2-2-2-2-1-1-1-1| 

R 
-----------------------------------------------------------------------| 
-10101010101010101010101010101010--------------------------------------| 
-10101010101010101010101010101010--------------------------------------| 
--8-8-8-8-8-8-8-8-8-8-8-8-8-8-8-8--------------------------------------| 
--8-8-8-8-8-8-8-8-8-8-8-8-8-8-8-8--------------------------------------| 
----------------------------------------3-3-3-3-3-3-3-3-2-2-2-2-1-1-1-1| 





1:13 


--------------------------------------------X------------| 
--------------------------------------------X------------| 
--------------------------------------------X------------| 
--------------------------------------------X------------| 
-----------------------0-----------------------------------| 
-000-0-0-0-0-0-0-0-----0-----------------------------------| 
 ***   *   *   *  |                          N 



1:30 

L 
------------------------------------------------------------------------| 
------------------------------------------------------------------------| 
---------------------------------------------------------------7-----13-| 
---------------------------------------------------------------X------X-| 
---------------------------------------------------)-----------5-----11-| 
-000-0-0-0-0-0-0-0---000-0-0-0-0-0-0-0---000000-1-1--0-0-3-6-0---6-0----| 
 ***   *   *   *  |  ***   *   *   *  |  ******      *       *     * 
R 
------------------------------------------------------------------------| 
------------------------------------------------------------------------| 
------------------------------------------------------------------------| 
------------------------------------------------------------------------| 
---------------------------------------------------)-----------5-----8--| 
-000-0-0-0-0-0-0-0---000-0-0-0-0-0-0-0---000000-1-1--0-0-3-6-0---6-0----| 
 ***   *   *   *  |  ***   *   *   *  |  ******      *       *     * 

L 
-------------------------------------------------------------------| 
-------------------------------------------------------------------| 
-------------------------------------------------------------------| 
-------------------------------------------------------------------| 
------------------------------------------------)---7--------8-----| 
-000-0-0-0-0-0-0-0---000-0--0--0--\---000000-1-1--0---8-0000---10--| 
 ***   *   *   *  |  ***  |  |  |     ******      *     **** 
R 
-------------------------------------------------------------------| 
-------------------------------------------------------------------| 
-------------------------------------------------------------------| 
-------------------------------------------------------------------| 
------------------------------------------------)---7--------8-----| 
-000-0-0-0-0-0-0-0---000-0--0--0--0---000000-1-1--0---8-0000---10--| 
 ***   *   *   *  |  ***  |  |  |  |  ******      *     **** 



1;41 


L 
-------------------------------------------------------------------------------| 
-------------------------------------------------------------------------------| 
-7-7-7-7-7-7-7-7-15-15-15-14-14-14-10-10-7-7-7-7-7-7-7-7-9-9-10-10-12-12-14-14-| 
-X-X-X-X-X-X-X-X--X--X--X--X--X--X--X--X-X-X-X-X-X-X-X-X-X-X--X--X--X--X--X--X-| 
-5-5-5-5-5-5-5-5-13-13-13-12-12-12--8--8-5-5-5-5-5-5-5-5-7-7--8--8-10-10-12-12-| 
-------------------------------------------------------------------------------| 

R 
--------------------------------------------------------------------| 
-101010101010101010101010101010101010101010101010-1313131313131313--| 
-101010101010101010101010101010101010101010101010-1212121212121212--| 
--8-8-8-8-8-8-8-8-8-8-8-8-8-8-8-8-8-8-8-8-8-8-8-8-1010101010101010--| 
--8-8-8-8-8-8-8-8-8-8-8-8-8-8-8-8-8-8-8-8-8-8-8-8-1010101010101010--| 
--------------------------------------------------------------------| 



L 
-------------------------------------------------------------------------| 
-------------------------------------------------------------------------| 
1010101010101010-15-15-15-14-14-14-1010-7-7-7-7-7-7-7-7-10101010-9-9-9-9-| 
-X-X-X-X-X-X-X-X--X--X--X--X--X--X--X-X-X-X-X-X-X-X-X-X--X-X-X-X-X-X-X-X-| 
-8-8-8-8-8-8-8-8-13-13-13-12-12-12--8-8-5-5-5-5-5-5-5-5--8-8-8-8-7-7-7-7-| 
-------------------------------------------------------------------------| 

R 
--------------------------------------------------------------------| 
-101010101010101010101010101010101010101010101010-1313131313131313--| 
-101010101010101010101010101010101010101010101010-1212121212121212--| 
--8-8-8-8-8-8-8-8-8-8-8-8-8-8-8-8-8-8-8-8-8-8-8-8-1010101010101010--| 
--8-8-8-8-8-8-8-8-8-8-8-8-8-8-8-8-8-8-8-8-8-8-8-8-1010101010101010--| 
--------------------------------------------------------------------| 


L 
-------------------------------------------------------------------------------| 
-------------------------------------------------------------------------------| 
-1010101010101010-15-15-15-14-14-14-1010-7-7-7-7-7-7-7-7-9-9-10-10-12-12-14-14-| 
--X-X-X-X-X-X-X-X--X--X--X--X--X--X--X-X-X-X-X-X-X-X-X-X-X-X--X--X--X--X--X--X-| 
--8-8-8-8-8-8-8-8-13-13-13-12-12-12--8-8-5-5-5-5-5-5-5-5-7-7--8--8-10-10-12-12-| 
-------------------------------------------------------------------------------| 

R 
--------------------------------------------------------------------| 
-101010101010101010101010101010101010101010101010-1313131313131313--| 
-101010101010101010101010101010101010101010101010-1212121212121212--| 
--8-8-8-8-8-8-8-8-8-8-8-8-8-8-8-8-8-8-8-8-8-8-8-8-1010101010101010--| 
--8-8-8-8-8-8-8-8-8-8-8-8-8-8-8-8-8-8-8-8-8-8-8-8-1010101010101010--| 
--------------------------------------------------------------------| 


L 
-----------------------------------------------------------------------| 
-----------------------------------------------------------------------| 
1010101010101010-15-15-15-14-14-14-1010--------------------------------| 
-X-X-X-X-X-X-X-X--X--X--X--X--X--X--X-X--------------------------------| 
-8-8-8-8-8-8-8-8-13-13-13-12-12-12--8-8--------------------------------| 
----------------------------------------3-3-3-3-3-3-3-3-2-2-2-2-1-1-1-1| 

R 
-----------------------------------------------------------------------| 
-10101010101010101010101010101010--------------------------------------| 
-10101010101010101010101010101010--------------------------------------| 
--8-8-8-8-8-8-8-8-8-8-8-8-8-8-8-8--------------------------------------| 
--8-8-8-8-8-8-8-8-8-8-8-8-8-8-8-8--------------------------------------| 
----------------------------------------3-3-3-3-3-3-3-3-2-2-2-2-1-1-1-1| 



2:10 


L 
-------------------------------------------------------| 
-------------------------------------------------------| 
--------/10--10-12-12/14--12-10-9-10-10/12-10~-----\---| 
-------------------------------------------------------| 
-------------------------------------------------------| 
-0-0-0-------------------------------------------------| 
 * * * 
R 
-------------------------------------------------------| 
-------------------------------------------------------| 
--------/7---7--9--9/10---9--7--5--7--7/9--7~------\---| 
-------------------------------------------------------| 
-------------------------------------------------------| 
-0-0-0-------------------------------------------------| 
 * * *   


L 
-------------------------------------------------------| 
-------------------------------------------------------| 
---------/10--10-12-12/14--12-10-9-10-10/12-10~--------| 
-------------------------------------------------------| 
-------------------------------------------------------| 
-0-0-0-0-----------------------------------------------| 
 * * * * 
R 
-------------------------------------------------------| 
-------------------------------------------------------| 
---------/7---7--9--9/10---9--7--5--7--7/9--7~---------| 
-------------------------------------------------------| 
-------------------------------------------------------| 
-0-0-0-0-----------------------------------------------| 
 * * * *  


L 
-----------------------------------------------------------------------------| 
------------------11-11/13--11-10-10-11-11/13----\8---10-8----8--------------| 
-10-12-12/14~--14------------------------------------------10---10-9----9----| 
---------------------------------------------------------------------10------| 
-----------------------------------------------------------------------------| 
-----------------------------------------------------------------------------| 

R 
----------------------------------------------------------------------------| 
-----------------8--8/10--8--6--6--8--8/10----\5----6-5---5-----------------| 
-7--9--9/10~-10-----------------------------------------7---7-5---5---------| 
----------------------------------------------------------------7-----------| 
----------------------------------------------------------------------------| 
----------------------------------------------------------------------------| 




2:28 




S                                                                                               )~~~ 
------------------------------------------------------------------------101010101212121213131315---| 
-6--9--10--------12--13-----8-10-13-10-8-10-13-10-8-10-13-10-8-10-13-10----------------------------| 
-7--9--10-\--10--12--13----------------------------------------------------------------------------| 
-------------10--12--13-\--------------------------------------------------------------------------| 
---------------------------------------------------------------------------------------------------| 
---------------------------------------------------------------------------------------------------| 

R 
--------------------------------------------------------------------------------| 
--------------------------------------------------------------------------------| 
--------------------------------------------------------------------------------| 
--------------------------------------------------------------------------------| 
--------------------------------------------------------------------------------| 
-000-0-0-0-0-0-0-0---000-0-0-0-0-0-0-0---333-3-3-3-3-3-3-3---333-3-3-3-3-3-3-3--| 
 ***   *   *   *  |  ***   *   *   *  |  ***   *   *   *  |  ***   *   *   *  | 


2:35 


S                                                                           )~~~~ 
-/22222222222222\-/22222222222222\-/22222222\-/22222222-21212121-20202020-19-| 
-----------------------------------------------------------------------------| 
-----------------------------------------------------------------------------| 
-----------------------------------------------------------------------------| 
-----------------------------------------------------------------------------| 
-----------------------------------------------------------------------------| 
S CONT. 

S                                                                       )~~ 
------------------------------------------------17171717-18181818-202020----| 
-14-15-18-15-14-15-18-15-14-15-18-15-14-15-18-15----------------------------| 
----------------------------------------------------------------------------| 
----------------------------------------------------------------------------| 
----------------------------------------------------------------------------| 
----------------------------------------------------------------------------| 

R 
--------------------------------------------------------------------------------| 
--------------------------------------------------------------------------------| 
--------------------------------------------------------------------------------| 
--------------------------------------------------------------------------------| 
--------------------------------------------------------------------------------| 
-000-0-0-0-0-0-0-0---000-0-0-0-0-0-0-0---333-3-3-3-3-3-3-3---333-3-3-3-3-3-3-3--| 
 ***   *   *   *  |  ***   *   *   *  |  ***   *   *   *  |  ***   *   *   *  | 




2:41 


S 
--------------------------------------------------------------------------------------------| 
----------------------------------------------------------------------------------------16\-| 
--------------------------------------------------------------------------------------------| 
--------------------)----------------------------------13-15-16-15-13-12-13--12\----12/-----| 
-/-9----8--9--11--11--11--9--8--9--11----------12-14-16--------------------------5/---------| 
---------------------------------------12-14-16---------------------------------------------| 
                                        *  *  * *  *  * *  *  *  *  *   
R 
---------------------------------------------------------------------------------------------| 
---------------------------------------------------------------------------------------------| 
---------------------------------------------------------------------------------------------| 
---------------------------------------------------------------------------------------------| 
-1---------------------4--------------0------------------------------------------------------| 
-1---------------------4--------------0------------------------------------------------------| 



S                 )( 
-11--\--11--13--13----11--10--11--13--14-11-10-11-10--10-11-14-11-10-11-10-\---___-----___-----___--| 
----------------------------------------------------11----------------------- /   \---/   \---/   \-| 
-----------------------------------------------------------------------------3-5-3-0-5-7-5-0-7-9-7-0| 
----------------------------------------------------------------------------------------------------| 
----------------------------------------------------------------------------------------------------| 
----------------------------------------------------------------------------------------------------| 

R 
-------------------------------------------------------------------------------------------------------| 
-------------------------------------------------------------------------------------------------------| 
-------------------------------------------------------------------------------------------------------| 
--------------------------------------------------------------------------------___-----___-----___----| 
-1---------------------4--------------0----------------------------------------/   \---/   \---/   \---| 
-1---------------------4--------------0---------------------------------------1-3-1-0-3-5-3-0-5-7-5-0--| 




2:54 

L 
-------------------------------------------------------------------------------------| 
-------------------------------------------------------------------------------------| 
/12-10--10-12-12/14--12-10-9-10-10/12-10~---\---10--10-12-12/14--12-10-9-10-10/12-10~| 
---------------------------------------------/---------------------------------------| 
-------------------------------------------------------------------------------------| 
-------------------------------------------------------------------------------------| 
  
R 
-------------------------------------------------------------------------------------| 
-------------------------------------------------------------------------------------| 
--/7---7--9--9/10---9--7--5--7--7/9--7~--\---/7---7--9--9/10---9--7--5--7--7/9--7~---| 
-------------------------------------------------------------------------------------| 
-------------------------------------------------------------------------------------| 
-------------------------------------------------------------------------------------| 
   


L 
------------------------------------------------------------------------------| 
-------------------11-11/13--11-10-10-11-11/13----\8---10-8----8--------------| 
-10-12-12/14~---14------------------------------------------10---10-9----9----| 
----------------------------------------------------------------------10------| 
------------------------------------------------------------------------------| 
------------------------------------------------------------------------------| 

R 
----------------------------------------------------------------------------| 
-----------------8--8/10--8--6--6--8--8/10----\5----6-5---5-----------------| 
-7--9--9/10~--10----------------------------------------7---7-5---5---------| 
----------------------------------------------------------------7-----------| 
----------------------------------------------------------------------------| 
----------------------------------------------------------------------------| 



L 
-------------------------------------------------------------------------| 
--------------------------------------------------10-8----8--------------| 
--------/10--10-12-12/14--12-10-9-10-10/12-10~---------10---10-9----9----| 
-----------------------------------------------------------------10------| 
-------------------------------------------------------------------------| 
-0-0-0-------------------------------------------------------------------| 
 * * * 
R 
----------------------------------------------------------------------| 
-------------------------------------------------6-5---5--------------| 
--------/7---7--9--9/10---9--7--5--7--7/9--7~--------7----7-5---5-----| 
--------------------------------------------------------------7-------| 
----------------------------------------------------------------------| 
-0-0-0----------------------------------------------------------------| 
 * * *   




3:28 


L 
-------------------------------------------------------------------------------| 
-------------------------------------------------------------------------------| 
-7-7-7-7-7-7-7-7-15-15-15-14-14-14-10-10-7-7-7-7-7-7-7-7-9-9-10-10-12-12-14-14-| 
-X-X-X-X-X-X-X-X--X--X--X--X--X--X--X--X-X-X-X-X-X-X-X-X-X-X--X--X--X--X--X--X-| 
-5-5-5-5-5-5-5-5-13-13-13-12-12-12--8--8-5-5-5-5-5-5-5-5-7-7--8--8-10-10-12-12-| 
-------------------------------------------------------------------------------| 

R 
--------------------------------------------------------------------| 
-101010101010101010101010101010101010101010101010-1313131313131313--| 
-101010101010101010101010101010101010101010101010-1212121212121212--| 
--8-8-8-8-8-8-8-8-8-8-8-8-8-8-8-8-8-8-8-8-8-8-8-8-1010101010101010--| 
--8-8-8-8-8-8-8-8-8-8-8-8-8-8-8-8-8-8-8-8-8-8-8-8-1010101010101010--| 
--------------------------------------------------------------------| 



L 
-------------------------------------------------------------------------| 
-------------------------------------------------------------------------| 
1010101010101010-15-15-15-14-14-14-1010-7-7-7-7-7-7-7-7-10101010-9-9-9-9-| 
-X-X-X-X-X-X-X-X--X--X--X--X--X--X--X-X-X-X-X-X-X-X-X-X--X-X-X-X-X-X-X-X-| 
-8-8-8-8-8-8-8-8-13-13-13-12-12-12--8-8-5-5-5-5-5-5-5-5--8-8-8-8-7-7-7-7-| 
-------------------------------------------------------------------------| 

R 
--------------------------------------------------------------------| 
-101010101010101010101010101010101010101010101010-1313131313131313--| 
-101010101010101010101010101010101010101010101010-1212121212121212--| 
--8-8-8-8-8-8-8-8-8-8-8-8-8-8-8-8-8-8-8-8-8-8-8-8-1010101010101010--| 
--8-8-8-8-8-8-8-8-8-8-8-8-8-8-8-8-8-8-8-8-8-8-8-8-1010101010101010--| 
--------------------------------------------------------------------| 


L 
-------------------------------------------------------------------------------| 
-------------------------------------------------------------------------------| 
-1010101010101010-15-15-15-14-14-14-1010-7-7-7-7-7-7-7-7-9-9-10-10-12-12-14-14-| 
--X-X-X-X-X-X-X-X--X--X--X--X--X--X--X-X-X-X-X-X-X-X-X-X-X-X--X--X--X--X--X--X-| 
--8-8-8-8-8-8-8-8-13-13-13-12-12-12--8-8-5-5-5-5-5-5-5-5-7-7--8--8-10-10-12-12-| 
-------------------------------------------------------------------------------| 

R 
--------------------------------------------------------------------| 
-101010101010101010101010101010101010101010101010-1313131313131313--| 
-101010101010101010101010101010101010101010101010-1212121212121212--| 
--8-8-8-8-8-8-8-8-8-8-8-8-8-8-8-8-8-8-8-8-8-8-8-8-1010101010101010--| 
--8-8-8-8-8-8-8-8-8-8-8-8-8-8-8-8-8-8-8-8-8-8-8-8-1010101010101010--| 
--------------------------------------------------------------------| 


L 
-----------------------------------------------------------------------| 
-----------------------------------------------------------------------| 
1010101010101010-15-15-15-14-14-14-1010--------------------------------| 
-X-X-X-X-X-X-X-X--X--X--X--X--X--X--X-X--------------------------------| 
-8-8-8-8-8-8-8-8-13-13-13-12-12-12--8-8--------------------------------| 
----------------------------------------3-3-3-3-3-3-3-3-2-2-2-2-1-1-1-1| 

R 
-----------------------------------------------------------------------| 
-10101010101010101010101010101010--------------------------------------| 
-10101010101010101010101010101010--------------------------------------| 
--8-8-8-8-8-8-8-8-8-8-8-8-8-8-8-8--------------------------------------| 
--8-8-8-8-8-8-8-8-8-8-8-8-8-8-8-8--------------------------------------| 
----------------------------------------3-3-3-3-3-3-3-3-2-2-2-2-1-1-1-1| 





---------------------------------------| 
---------------------------------------| 
---------------------------------------| 
---------------------------------------| 
----------------------)-0-0------------| 
-1-0-1-3-4-0-1-0-1-0-1--0-0------------| 
                        * * 


-----------------------------------------------------------------| 
-----------------------------------------------------------------| 
-----------------------------------------------------------------| 
-----------------------------------------------------PH----------| 
------------------------------------------------------)-0-0-0-0--| 
-1-0-1-3-4-0-1-0-1-0-1-3-4-0-1-0-1-0-1-3-4-0-1-0-1-0-1--0-0-0-0--| 
                                                        * * * * 

L 
-----------------------------------------------------------------------| 
-----------------------------------------------------------------------| 
-----------------------------------------------------------------------| 
--------------------------------------------------------------------8--| 
-------------------------------------------------------------0-0-0--8--| 
-1-0-1-3-4-0-1-0-1-0-1-3-4-0-1-0-1-0-1-3-4-0-1-0-1-0-1-0-3-4-0-0-0-----| 
                                                             * * * 

-----------------------------------------------------------------------| 
-----------------------------------------------------------------------| 
-----------------------------------------------------------------------| 
--------------------------------------------------------------------6--| 
-------------------------------------------------------------0-0-0--8--| 
-1-0-1-3-4-0-1-0-1-0-1-3-4-0-1-0-1-0-1-3-4-0-1-0-1-0-1-0-3-4-0-0-0-----| 
                                                             * * * 
    	
fixar
fixar inscrever-se

enviado porenviado por: sabrjoao
cifra enviadaCorrigida por: sem correções
logo top cifrasComente
ico música do artistaMúsicas deste artista
ico curtiuCurtiu?
ico destaqueDestaque
Petaxxon Comunicação Online

Cifras.com.br - Melhor e mais completo site de cifras e tablaturas do Brasil Mais de 1 milhão de acordes de músicas cadastradas desde 2003
As informações contidas no nosso site são colaborações de seus usuários e podem conter erros, sendo assim, não nos responsabilizamos sobre nenhuma destas.

close
menos
mais
close
Cor dos acordes:

Cor da letra:

close
Alinhar acordes a direita Alinhar acordes a esquerda Alinhar acordes em baixo Alinhar acordes no topo
close
  Mostrar todos os acordes Esconder acordes muito fáceis Esconder acordes fáceis Esconder acordes intermediários
redimensionar
glossário