Cifras e Tablaturas
Ham Sandwich

Ham Sandwich

Ants (acoustic)

Cifras Cancelar Versão de Impressão Print

Ham Sandwich - Ants (acoustic)

Tom: C

Capotraste na 5ª casa
  			

 



Intro/Verse 
e|---------------------------------------------------------------------------| 
B|-------1-------------1--------------1-----------------1--------------------| 
G|---------0---------------0---------------0----------------0----------------| 
D|----3---------3--2------------2--------------------------------------------| 
A|---------------------------------2-----------2---3-------------------------| 
E|---------------------------------------------------------------------------| 

e|---------------------------------------------------------------------------| 
B|-------1-----------1-------------1---------1---------1---------------------| 
G|----------0------------0------------0---------0----------------------------| 
D|----3--------3--2---------2--0----------0--------0-------------------------| 
A|-3-------------------------------------------------------------------------| 
E|---------------------------------------------------------------------------| 

e|---------------------------------------------------------------------------| 
B|-------1-------------1--------------1-----------------1--------------------| 
G|---------0---------------0---------------0----------------0----------------| 
D|----3---------3--2------------2--------------------------------------------| 
A|---------------------------------2-----------2---3-------------------------| 
E|---------------------------------------------------------------------------| 

e|---------------------------------------------------------------------------| 
B|---------1--------------1----------------1--------------1----------1-------| 
G|-------------0--------------0----------------0-------------0---------------| 
D|---------------------------------------------------------------------------| 
A|--2--0----------0--1------------1---2--------------2-----------2-----------| 
E|---------------------------------------------------------------------------| 
                                                  C C     C C
e|--------------------------------------------|---0-0-----0-0----------------| 
B|---------1---------1----------1-------------|---1-1-----1-1----------------| 
G|------------0---------0---------------------|---0-0-----0-0----------------| 
D|--------------------------------------------|---2-2-----2-2----------------| 
A|----2-----------2--------2------------------|---3-3-----3-3----------------| 
E|--------------------------------------------|---0-0-----0-0----------------| 

Chorus 
     Am7 |  |  | C  |  |  | G | | | F | | |  
e|---0-----------0----------1-------1----------------------------------------| 
B|---1-----------1----------0-------1----------------------------------------| 
G|---0-----------0----------0-------2----------------------------------------| 
D|---2-----------2----------0-------3----------------------------------------| 
A|---0-----------3----------2-------3----------------------------------------| 
E|---x-----------0----------3-------1----------------------------------------| 
    	
fixar
fixar inscrever-se

enviado porenviado por: alyslima
cifra enviadaCorrigida por: sem correções
logo top cifrasComente
ico música do artistaMúsicas deste artista
ico curtiuCurtiu?
ico destaqueDestaque
Petaxxon Comunicação Online

Cifras.com.br - Melhor e mais completo site de cifras e tablaturas do Brasil Mais de 1 milhão de acordes de músicas cadastradas desde 2003
As informações contidas no nosso site são colaborações de seus usuários e podem conter erros, sendo assim, não nos responsabilizamos sobre nenhuma destas.

close
menos
mais
close
Cor dos acordes:

Cor da letra:

close
Alinhar acordes a direita Alinhar acordes a esquerda Alinhar acordes em baixo Alinhar acordes no topo
close
  Mostrar todos os acordes Esconder acordes muito fáceis Esconder acordes fáceis Esconder acordes intermediários
redimensionar
glossário