Cifras e Tablaturas
Israel Nash Gripka

Israel Nash Gripka

Rain Plans

Cifras Cancelar Versão de Impressão Print

Israel Nash Gripka - Rain Plans

Tom: E

  • 0:00 / 0:00
  			Standard Tuning 

Intro and Verse: 

e|--5------7-7-7-7-5----------| 
B|--5------5-5-5-5-5---7b8~---| 
G|--5------5-5-5-5-5----------| 
D|--5------5-5-5-5-5----------| 
A|--7-------------------------| 
E|--5-------------------------| 
                                 2x 

e|--0----3-3-3-3-2-0-0---| 
B|--0----0-0-0-0-0-0-3---| 
G|--0----0-0-0-0-0-0-0---| 
D|--2----2-2-2-2-2-2-2---| 
A|--2--------------------| 
E|--0--------------------| 

                              2x 

Key change, one stroke per note: 

E - F# - G - D 

Then straight to the Chorus: 

C - Bm 
Em - Bm 
C - Bm 
D - A 
    	

enviado porenviado por: paulantunes
cifra enviadaCorrigida por: sem correções
afinação

Toque com outra afinação
Modifique a corda abaixo ou utilize um dos presets.

Dacorde
Aacorde
Eacorde
braço violão
Gacorde
Bacorde
Eacorde
logo top cifrasComente
ico música do artistaMúsicas deste artista
ico curtiuCurtiu?
ico destaqueDestaque
Petaxxon Comunicação Online

Cifras.com.br - Melhor e mais completo site de cifras e tablaturas do Brasil Mais de 1 milhão de acordes de músicas cadastradas desde 2003
As informações contidas no nosso site são colaborações de seus usuários e podem conter erros, sendo assim, não nos responsabilizamos sobre nenhuma destas.

close
menos
mais
close
Cor dos acordes:

Cor da letra:

close
Alinhar acordes a direita Alinhar acordes a esquerda Alinhar acordes em baixo Alinhar acordes no topo
close
  Mostrar todos os acordes Esconder acordes muito fáceis Esconder acordes fáceis Esconder acordes intermediários
redimensionar
glossário