Cifras e Tablaturas
Misc Computer Games

Misc Computer Games

Where The Water Tastes Like Wine - Soulsucker Blues

Cifras Cancelar Versão de Impressão

Misc Computer Games - Where The Water Tastes Like Wine - Soulsucker Blues

Tom:

  			
Intro 

e|---------------|-------1-----3-|-1--3/5--5--8-|-5--4--3--1-|-------------------| 
B|-------1--1--3-|-1--3-----1----|--------------|------------|-3--1--3-----------| 
G|--0h3----------|---------------|--------------|------------|----------2--0-----| 
D|---------------|---------------|--------------|------------|----------------3--| 
A|---------------|---------------|--------------|------------|-------------------| 
D|---------------|---------------|--------------|------------|-------------------| 

verse 1 

e|----------------|----------------------------------------------5--5---------| 
B|----------------|----------------------------------------------6--6---------| 
G|----------------|-------2--1-----0-----------------------------7--7---------| 
D|--0---0--3---0--|--0----0--0--0--3--------0---0--3---0----0-----------------| 
A|--0---0--3---0--|--0----------------------0---0--3---0----0-----------------| 
D|--0---0--3---0--|--0----------------------0---0--3---0----0-----------------| 

e|----------------|------------1---------------------------------5--10--------| 
B|----------------|-------1h3-----3--1h3-------------------------6--6---------| 
G|----------------|----------------------------------------------7--7---------| 
D|--0---0--3---0--|--0----------------------0---0--3---0----0-----------------| 
A|--0---0--3---0--|--0----------------------0---0--3---0----0-----------------| 
D|--0---0--3---0--|--0----------------------0---0--3---0----0-----------------| 

e|----------------|-----------------------------------------------------------| 
B|----------------|-----------------------------------------------------------| 
G|----------------|-------2--1-----------------------------------2--1---------| 
D|--0---0--3---0--|--0----0-----0--3--------0---0--3---0----0----0-----0--3---| 
A|--0---0--3---0--|--0----------------------0---0--3---0----0-----------------| 
D|--0---0--3---0--|--0----------------------0---0--3---0----0-----------------| 

e|----------------|-----------------------------------------------------------| 
B|----------------|-----------------------------------------------------------| 
G|----------------|-----------2--1--------------------------------------------| 
D|--0---0--3---0--|--0--------0-----0--3----0---0--3---0----0--3--0--3--------| 
A|--0---0--3---0--|--0----------------------0---0--3---0----0--3--0--3--------| 
D|--0---0--3---0--|--0----------------------0---0--3---0----0--3--0--3--------| 

e|----------------|----------------------------------------| 
B|----------------|----------------------------------------| 
G|----------------|----------------------------------------| 
D|--5---5--8---5--|--5--3---5----5---5--8---5----5--3---5--| 
A|--5---5--8---5--|--5--3---5----5---5--8---5----5--3---5--| 
D|--5---5--8---5--|--5--3---5----5---5--8---5----5--3---5--| 

e|----------------|-----------------------------------------------------------| 
B|----------------|-----------------------------------------------------------| 
G|----------------|-----------2--1--------------------------------------------| 
D|--0---0--3---0--|--0--------0-----0--3----0---0--3---0----0--3--0--3--------| 
A|--0---0--3---0--|--0----------------------0---0--3---0----0--3--0--3--------| 
D|--0---0--3---0--|--0----------------------0---0--3---0----0--3--0--3--------| 

e|-------------|--------------------------------------------------------------| 
B|-------------|--------------------------------------------------------------| 
G|-------------|----------------------------------------------2--1--0---------| 
D|--7----7--7--|--7--7----7--7--7--6--5----5--5----5--5----0--0---------------| 
A|--7----7--7--|--7--7----7--7--7--6--5----5--5----5--5----0------------------| 
D|--7----7--7--|--7--7----7--7--7--6--5----5--5----5--5----0------------------| 

verse 2 

e|----------------|-----------------------------------------------------------| 
B|----------------|-----------------------------------------------------------| 
G|----------------|-------2--1--0--------------------------------2--1---------| 
D|--0---0--3---0--|--0----0-----------------0---0--3---0----0----0-----0--3---| 
A|--0---0--3---0--|--0----------------------0---0--3---0----0-----------------| 
D|--0---0--3---0--|--0----------------------0---0--3---0----0-----------------| 

e|----------------|----------------------------------------------5--5---------| 
B|----------------|----------------------------------------------6--6---------| 
G|----------------|-------2--1--0--------------------------------7--7---------| 
D|--0---0--3---0--|--0----0-----------------0---0--3---0----------------------| 
A|--0---0--3---0--|--0----------------------0---0--3---0----------------------| 
D|--0---0--3---0--|--0----------------------0---0--3---0----------------------| 


e|----------------|-----------------------------------------------------------| 
B|----------------|-----------------------------------------------------------| 
G|----------------|-------2--1--0--------------------------------2--1---------| 
D|--0---0--3---0--|--0----0-----------------0---0--3---0----0----0-----0--3---| 
A|--0---0--3---0--|--0----------------------0---0--3---0----0-----------------| 
D|--0---0--3---0--|--0----------------------0---0--3---0----0-----------------| 

e|----------------|-----------------------------------------------------------| 
B|----------------|-----------------------------------------------------------| 
G|----------------|-------2--1--0---------------------------------------------| 
D|--0---0--3---0--|--0----0-----------------0---0--3---0----0--3--0--3--------| 
A|--0---0--3---0--|--0----------------------0---0--3---0----0--3--0--3--------| 
D|--0---0--3---0--|--0----------------------0---0--3---0----0--3--0--3--------| 

e|----------------|----------------------------------------| 
B|----------------|----------------------------------------| 
G|----------------|----------------------------------------| 
D|--5---5--8---5--|--5--3---5----5---5--8---5----5--3---5--| 
A|--5---5--8---5--|--5--3---5----5---5--8---5----5--3---5--| 
D|--5---5--8---5--|--5--3---5----5---5--8---5----5--3---5--| 

e|----------------|-----------------------------------------------------------| 
B|----------------|-----------------------------------------------------------| 
G|----------------|-----------2--1--------------------------------------------| 
D|--0---0--3---0--|--0--------0-----0--3----0---0--3---0----0--3--0--3--------| 
A|--0---0--3---0--|--0----------------------0---0--3---0----0--3--0--3--------| 
D|--0---0--3---0--|--0----------------------0---0--3---0----0--3--0--3--------| 

e|-------------|--------------------------------------------------------------| 
B|-------------|--------------------------------------------------------------| 
G|-------------|----------------------------------------------2--1--0---------| 
D|--7----7--7--|--7--7----7--7--7--6--5----5--5----5--5----0--0---------------| 
A|--7----7--7--|--7--7----7--7--7--6--5----5--5----5--5----0------------------| 
D|--7----7--7--|--7--7----7--7--7--6--5----5--5----5--5----0------------------| 

e|-------------|--------------------------------------------------------------| 
B|-------------|--------------------------------------------------------------| 
G|-------------|--------------------------------------------------------------| 
D|--0--0--0--3-|-0--3--5--3--5--6--5--6--7--7--7--7--7--7--7--7--7--7--7--7---| 
A|--0--0--0--3-|-0--3--5--3--5--6--5--6--7--7--7--7--7--7--7--7--7--7--7--7---| 
D|--0--0--0--3-|-0--3--5--3--5--6--5--6--7--7--7--7--7--7--7--7--7--7--7--7---| 

Solo 

e|----------------1--|-------------1--3--3b4--1h3-----1-----------------------| 
B|--3--3----1--3--3--|--3--1--3--------------------3-----3--1--2--3-----------| 
G|-------------------|-----------------------------------------------0--1--2--| 
D|-------------------|--------------------------------------------------------| 
A|-------------------|--------------------------------------------------------| 
D|-------------------|--------------------------------------------------------| 

e|---------------|------------------------------------------------------------| 
B|--1--2--3------|-1/3-------1/3----------------------------------------------| 
G|-----------0h1-|------0h1-------0h1--0--------------------------------------| 
D|---------------|------------------------0--3--0--0-----0--0--3--0--0-----0--| 
A|---------------|------------------------------------3-----------------3-----| 
D|---------------|------------------------------------------------------------|| 

e|----------------|----------------------------------------1--3--3b4--1h3-----| 
B|----------------|--------------------------------------------------------3--| 
G|----------------|-----------------------------------------------------------| 
D|----------------|-------------------------5b6--3h5--------------------------| 
A|----------------|-----------------------------------5-----------------------| 
D|--5b6---5--5--5-|-3--5--5b6--3h5----3--5------------------------------------| 

e|--------1-----1-|-3--4--3--1--3--1-------------12----13--15--15--15--15--15-| 
B|--1--3-----3--3-|-3--3--------------3--1--3----10---------------------------| 
G|----------------|------------------------------10---------------------------| 
D|----------------|------------------------------12---------------------------| 
A|----------------|-----------------------------------------------------------| 
D|----------------|-----------------------------------------------------------| 

e|--13--12--10--8-|-7--5--4--3--4--5--4--3--------8--10--10b11--8------8h10---| 
B|----------------|------------------------------------------------10---------| 
G|----------------|-----------------------------------------------------------| 
D|----------------|-----------------------------------------------------------| 
A|----------------|-----------------------------------------------------------| 
D|----------------|-----------------------------------------------------------| 

e|--13h15--15b16--|--13--10----13--15--15b16----13--10----13--15--15b16--16---| 
B|----------------|-----------------------------------------------------------| 
G|----------------|-----------------------------------------------------------| 
D|----------------|-----------------------------------------------------------| 
A|----------------|-----------------------------------------------------------| 
D|----------------|-----------------------------------------------------------| 

e|--16--16--16--16--|--15--17--18b20--20--20--20--20--20----------------------| 
B|------------------|---------------------------------------------------------| 
G|------------------|---------------------------------------------------------| 
D|------------------|---------------------------------------------------------| 
A|------------------|---------------------------------------------------------| 
D|------------------|---------------------------------------------------------| 

verse 3} 

e|--------------------------------------------------------| 
B|--------------------------------------------------------| 
G|-------2--1-------------2--1----------------------------| 
D|--0----0-----0--3--0----0-----0--3--0-------------------| 
A|--0----------------0----------------0-------------------| 
D|--0----------------0----------------0-------------------| 

e|----------------|-------------------------------------------------------------| 
e|----------------|-------------------------------------------------------------| 
G|----------------|-------------------------------------------------------------| 
D|--0--0--0--3--0-|-3--5--3--5--6--5--3--5---5--10--5---5--3--5--5----5--10--5--| 
A|--0--0--0--3--0-|-3--5--3--5--6--5--3--5---5--10--5---5--3--5--5----5--10--5--| 
D|--0--0--0--3--0-|-3--5--3--5--6--5--3--5---5--10--5---5--3--5--5----5--10--5--| 

e|----------------|-----------------------------------------------------------| 
B|----------------|-----------------------------------------------------------| 
G|----------------|------------------2--1-------------------------------------| 
D|--5--3--5----0--|--0--3--0----0----0-----0--1--0----0--3--0----0--3--0--3---| 
A|--5--3--5----0--|--0--3--0----0----------------0----0--3--0----0--3--0--3---| 
D|--5--3--5----0--|--0--3--0----0----------------0----0--3--0----0--3--0--3---| 

e|-------------|--------------------------------------------------------------| 
B|-------------|--------------------------------------------------------------| 
G|-------------|--------------------------------------------------------------| 
D|--7----7--7--|--7--7----7--7--7--6--5---------------------------------------| 
A|--7----7--7--|--7--7----7--7--7--6--5---------------------------------------| 
D|--7----7--7--|--7--7----7--7--7--6--5---------------------------------------| 

Outro 

e|-------------|--------------------------------------------------------------| 
B|-------------|--------------------------------------------------------------| 
G|-------------|--------------------------------------------------------------| 
D|--0--0--0--3-|-0--3--5--3--5--6--5--6--7--7--7--7--7--0---------------------| 
A|--0--0--0--3-|-0--3--5--3--5--6--5--6--7--7--7--7--7--0---------------------| 
D|--0--0--0--3-|-0--3--5--3--5--6--5--6--7--7--7--7--7--0---------------------| 


*********************************** 
| /   Slide up 
| h   Hammer-on 
| b   Bend 
    	
fixar
fixar inscrever-se

enviado porenviado por: paulantunes
cifra enviadaCorrigida por: sem correções
afinação

Toque com outra afinação
Modifique a corda abaixo ou utilize um dos presets.

Dacorde
Aacorde
Eacorde
braço violão
Gacorde
Bacorde
Eacorde
logo top cifrasComente
ico música do artistaMúsicas deste artista
ico curtiuCurtiu?
ico destaqueDestaque
Petaxxon Comunicação Online

Cifras.com.br - Melhor e mais completo site de cifras e tablaturas do Brasil Mais de 1 milhão de acordes de músicas cadastradas desde 2003
As informações contidas no nosso site são colaborações de seus usuários e podem conter erros, sendo assim, não nos responsabilizamos sobre nenhuma destas.

close
menos
mais
close
Cor dos acordes:

Cor da letra:

close
Alinhar acordes a direita Alinhar acordes a esquerda Alinhar acordes em baixo Alinhar acordes no topo
close
  Mostrar todos os acordes Esconder acordes muito fáceis Esconder acordes fáceis Esconder acordes intermediários
redimensionar
glossário