Cifras e Tablaturas
Ana Carolina

Ana Carolina

Tanta saudade

Ano: 2005
Album : Ana & Jorge: ao Vivo
Compositor : (Chico Buarque)

Cifras Cancelar Versão de Impressão
cifras

Ana Carolina - Tanta saudade

fixar na tela  
Exibindo: vídeo-aula ver clipes redimensionar

Tom:

Am

  Intro   

|----------------------------------------------------------------|   
|---------7---7------3-2--x------------2-x-----6-7---7---7-------|   
|----------------------------2h3-2h3-x-----5h7-----x---7---------|   
|-17\--5----x----0h1---------------------------------------------|   
|----------------------------------------------------------------|   


|----------------------------------------------------------------|   
|-----7---7------3-2--x------------2-x-----6-7---7---7-----------|   
|------------------------2h3-2h3-x-----5h7-----x---7-------------|   
|--5----x----0h1-------------------------------------------------|   
|----------------------------------------------------------------|   


|----------------------------------------------------------------|   
|------------3-2--x------------2-x------6---7---7----------------|   
|-----7--------------2h3-2h3-x-----5/7----x---7------------------|   
|--5----0-1------------------------------------------------------|   
|----------------------------------------------------------------|   


|----------------------------------------------------------------|   
|-----7---7------3-2--x------------2-x-----6-7---7---7-----------|   
|------------------------2h3-2h3-x-----5h7-----x---7-------------|   
|--5----x----0h1-------------------------------------------------|   
|----------------------------------------------------------------|   


Estrofe (repetir igual)   

|----------------------------------------------------------------|   
|-----7---7------3-2--x-----------2-x-----6-7---7---7------------|   
|-----------------------2h3-2h3-x-----5h7-----x---7--------------|   
|--5----x----0h1-------------------------------------------------|   
|----------------------------------------------------------------|   


Final da Estrofe (1 compasso antes do refrão)   

|----------------------------------------------------------------|   
|-----7---7------3-2--x-------------2-x-----6-6/12\--------------|   
|-------------------------2h3-2h3-x-----5h7----------------------|   
|--5----x----0h1-------------------------------------------------|   
|----------------------------------------------------------------|   


Refrão (repetir igual)   

|----------------------------------------------------------------|   
|-----7---7------3-2--x-------------2-x-----6-6-6---6---x--------|   
|------------------------2h3-2h3-x------5h7-------x---x----------|   
|--5----x----0h1-------------------------------------------------|   
|----------------------------------------------------------------|   


Final do Refrão    

|----------------------------------------------------------------|   
|-----7---7------3-2--x------------2-x------6-6-6-6--------------|   
|------------------------2h3-2h3-x-----5h7-----------------------|   
|--5----x----0h1-------------------------------------------------|   
|----------------------------------------------------------------|   


Especial   

|----------------------------------------------------------------|   
|----------------------------------------------------------------|   
|-----------3-----------------------3----2-----------------------|   
|-5----1---------1---0----5----1-------------0-------------------|   
|----------------------------------------------------------------| 
  

top 5 | ana carolina
top pop music
Outras músicas do artista letras do(a) Ana Carolina
Top cifras »Top artistas »
Petaxxon Comunicação Online
Cifras.com.br - Melhor e mais completo site de cifras e tablaturas do Brasil
Mais de 1 milhão de acordes de músicas cadastradas desde 2003
As informações contidas no nosso site são colaborações de seus usuários e podem conter erros, sendo assim, não nos responsabilizamos sobre nenhuma destas.
close
menos
mais
close
Cor dos acordes:

Cor da letra:

 

save
close
close
 
redimensionar