Cifras e Tablaturas
Barão Vermelho

Barão Vermelho

Bete Balanço

Compositor : (Frejat / Cazuza)

Cifras Cancelar Versão de Impressão
cifras

Barão Vermelho - Bete Balanço

fixar na tela  
Exibindo: vídeo-aula ver clipes redimensionar

Tom:

Em

  
Intro e Verso: 

G|---9------9---------|---2-------2---------| 
D|--------------------|---------------------| 
A|----4-5-----4-5-4-5-|-0---2-3-0---2-3-2-3-| 
E|-0------0-----------|---------------------| 

Pré-Refrão: 

G|----------------------------------------------------------9-----| 
D|-------4---------0-2-2-0---2---------4-----------5-5-h7---------| 
A|-2-2-2-----0-2-2---------3---3-2-2-2-----0-2-2-3------------4-5-| 
E|---------2-----------------------------2----------------0-------| 



Refrão: 

G|---------------------------------9-------9-------| 
D|---------0h2-------------------------------------| 
A|-2-2-3-0-----2-2-3-3-3-2-----------4-5-----4-5-4-| 
E|-------------------------3-3-3-0-------0---------| 
  

top 5 | barão vermelho
top rock'n roll
Outras músicas do artista letras do(a) Barão Vermelho
Top cifras »Top artistas »
Petaxxon Comunicação Online
Cifras.com.br - Melhor e mais completo site de cifras e tablaturas do Brasil
Mais de 1 milhão de acordes de músicas cadastradas desde 2003
As informações contidas no nosso site são colaborações de seus usuários e podem conter erros, sendo assim, não nos responsabilizamos sobre nenhuma destas.
close
menos
mais
close
Cor dos acordes:

Cor da letra:

 

save
close
close
 
redimensionar