Cifras e Tablaturas
Barão Vermelho

Barão Vermelho

Maior AbandonadoTablatura de Baixo Verificada

Compositor : (Cazuza / Roberto Frejat)

Cifras Cancelar Versão de Impressão

Barão Vermelho - Maior Abandonado

Tom:

  			
Intro:   

G|--------------------|  
D|--------------------|  
A|--------------------|  
E|-0-0-0-0-0-0-0-0-0--|  


G|------------------------------------------------|  
D|-2-2-------2--2-2-------2--2-2-------2----------|  
A|-----4-2-4--------4-2-4--------4-2-4---4-0--4-2-|  
E|------------------------------------------------|  

Parte 1:  

G|-------------------------------------------------------|  
D|-2-2------------2-2------------2-2-----------2---------|  
A|-----4-4-2-2-4------4-4-2-2-4------4-4-2-2-4----4-2--4-|  
E|-------------------------------------------------------|  

G|---------------------------------------------------------|  
D|-2-2------------2-2------------2-2-----------2---------2-|  
A|-----4-4-2-2-4------4-4-2-2-4------4-4-2-2-4----4-2--4---|  
E|---------------------------------------------------------|  

Parte 2:  

G|---------------------------------------------------------------|  
D|---------------------------------------------------0h1---0h1---|  
A|-0-0-0-0-0-0-0--2-2-2-2-2-2-2-2--0-0-0-0-0-0-0--2------2-----2-|  
E|---------------------------------------------------------------|  


G|-------------------------------------------------------------|  
D|-----------------------------------4-------------------------|  
A|-0-0-0-0-0-0-0-----------------------------------------------|  
E|----------------4-4-4-4-4-4-4--0-2---2-0-2-2-0-2-2--2--0-4-0-|  

G|----------------------------------------------------------------|  
D|--------------------------------------------------------4-------|  
A|-0-0-0-0-0-0-0--2-2-2-2-2-2-2-2--0-0-0-0-0-0-0--2-2-4h6---6-4-2-|  
E|----------------------------------------------------------------|  

G|-------------------------------------------------------------|  
D|-----------------------------------4-------------------------|  
A|-0-0-0-0-0-0-0-----------------------------------------------|  
E|----------------4-4-4-4-4-4-4--0-2---2-0-2-2-0-2-2--0-2-2----|  

G|--------------4---------|  
D|----------4-6---6-4-----|  
A|-2-2--4h6------------2--|  
E|------------------------|  

Parte 3:  

G|-------------------------------------------------|  
D|-------------------------------------------------|  
A|-0-0---0-2-2---2-0-0---0-2-2---------------------|  
E|------------------------------0-5-5--0-4-4--0-2--|  

    	
fixar
fixar inscrever-se

enviado porenviado por: Acelot
cifra enviadaCorrigida por: Acelot
logo top cifrasComente
ico música do artistaMúsicas deste artista
ico curtiuCurtiu?
ico destaqueDestaque
Petaxxon Comunicação Online

Cifras.com.br - Melhor e mais completo site de cifras e tablaturas do Brasil Mais de 1 milhão de acordes de músicas cadastradas desde 2003
As informações contidas no nosso site são colaborações de seus usuários e podem conter erros, sendo assim, não nos responsabilizamos sobre nenhuma destas.

close
menos
mais
close
Cor dos acordes:

Cor da letra:

close
Alinhar acordes a direita Alinhar acordes a esquerda Alinhar acordes em baixo Alinhar acordes no topo
close
  Mostrar todos os acordes Esconder acordes muito fáceis Esconder acordes fáceis Esconder acordes intermediários
redimensionar
glossário