Cifras e Tablaturas
Better Than Ezra
Cifras Cancelar Versão de Impressão

Better Than Ezra - Closer

Tom: E

  			
At 0:02 (3 times) 
   1  &  &  &  2  &  &  &  3  &  &  &  4  &  &  &  
   E                 E              E  E  F# G#     
G|-----------------------------------------------| 
D|2-----------------2--------------2--2--4--6----| 
A|-----------------------------------------------| 
E|-----------------------------------------------| 

   1  &  &  &  2  &  &  &  3  &  &  &  4  &  &  &  
   A                 A              G# F#  
G|-----------------------------------------------| 
D|7-----------------7--------------6--4----------| 
A|-----------------------------------------------| 
E|-----------------------------------------------| 

At 0:22 
   1  &  &  &  2  &  &  &  3  &  &  &  4  &  &  &  1  2  3  4  
   E                 E              E  E  F# G#    A 
G|-----------------------------------------------|-----------| 
D|2-----------------2--------------2--2--4--6----|7----------| 
A|-----------------------------------------------|-----------| 
E|-----------------------------------------------|-----------| 

At 0:28 (4 times) 
   1  2  3  4  1  2  3  4  
   E           A      
G|-----------|-----------| 
D|-----------|-----------| 
A|-----------|-----------| 
E|0----------|5----------| 

At 0:54 (2 times) 
   1  &  2  &  3  &  4  &  &  1  2  3  4  
   E        F#    G#    A     
G|--------------------------|-----------| 
D|--------------------------|-----------| 
A|--------------------------|-----------| 
E|0--------2-----4-----5----|-----------| 

At 1:07 
   1  &  2  &  3  &  4  &  1  &  2  &  3  &  4  &    
   E  E  E  E  E  E  E  E  A  A  A  A  A  A  A  A  
G|-----------------------|-----------------------| 
D|-----------------------|-----------------------| 
A|-----------------------|-----------------------| 
E|0--0--0--0--0--0--0--0-|5--5--5--5--5--5--5--5-| 

   1  2  3  4  1  &  2  &  3  &  4  & 
   E  B  E  B  C#       B  B     
G|-----------|-----------------------| 
D|-----------|-----------------------| 
A|7-----7----|-----------------------| 
E|---7-----7-|9--------7--7----------| 

   1  &  2  &  3  &  4  &  1  &  2  &  3  &  4  & 
   E  E  E  E  E  E  E  E  A  A  A  A  A  A  A  A 
G|-----------------------|-----------------------| 
D|-----------------------|-----------------------| 
A|-----------------------|-----------------------| 
E|0--0--0--0--0--0--0--0-|5--5--5--5--5--5--5--5-| 

   1 &  2  & 3  &  4  &  1  &  2  &  3  &  4  &  1  2  3  4 
   E    B    E     B   C#       G#               E 
G|---------------------|-----------------------|-----------| 
D|---------------------|--------6--------------|-----------| 
A|7---------7----------|-----------------------|7----------| 
E|-----7----------7----|9----------------------|-----------| 

   1  &  2  &  3  &  4  &  1  2  3  4 
   E        F#    G#    A  
G|-----------------------|-----------| 
D|-----------------------|-----------| 
A|-----------------------|-----------| 
E|0--------2-----4-----5-|-----------| 

At 1:43 (3 times) 
   1  &  &  &  2  &  &  &  3  &  &  &  4  &  &  &  
   E  E     E  E                 G#    F#    G#      
G|-----------------------------------------------| 
D|-----------------------------------------------| 
A|-----------------------------------------------| 
E|0--0-----0--0-----------------4-----2-----4----| 

   1  &  &  &  2  &  &  &  3  &  &  &  4  &  &  &  
   A  A     A  AF#              F#    G#    F#  
G|-----------------------------------------------| 
D|-----------------------------------------------| 
A|-----------------------------------------------| 
E|5--5-----5--52---------------2-----4-----2----| 

At 2:02 
   1  &  &  &  2  &  &  &  3  &  &  &  4  &  &  &  
   E  E     E  E                 G#    F#    G#  
G|-----------------------------------------------| 
D|-----------------------------------------------| 
A|-----------------------------------------------| 
E|0--0-----0--0-----------------4-----2-----4----| 

   1  &  &  &  2  &  &  &  3  &  &  &  4  &  &  &  
   A  A     A  AF#                    G#    F#     
G|-----------------------------------------------| 
D|-----------------------------------------------| 
A|-----------------------------------------------| 
E|5--5-----5--52---------------------4-----2----| 

At 2:09 (2 times) 
   1  &  2  &  3  &  4  &  1  2  3  4 
   E        F#    G#    A     
G|-----------------------|-----------| 
D|-----------------------|-----------| 
A|-----------------------|-----------| 
E|0--------2-----4-----5-|-----------| 

At 2:22 
   1  &  2  &  3  &  4  &  1  &  2  &  3  &  4  & 
   E  E  E  E  E  E  E  E  A  A  A  A  A  A  A  A     
G|-----------------------|-----------------------| 
D|-----------------------|-----------------------| 
A|-----------------------|-----------------------| 
E|0--0--0--0--0--0--0--0-|5--5--5--5--5--5--5--5-| 

   1  &  2  &  3  &  4  &  1  &  2  &  3  &  4  & 
   E     B  G# E  D# B  G# C#       B  B     G# F#     
G|-----------------------|-----------------------| 
D|-----------------------|-----------------------| 
A|------------7--6-------|-----------------------| 
E|0-----7---4-------7--4-|9--------7--7-----4--2-| 

   1  &  2  &  3  &  4  &  1  &  2  &  3  &  4  & 
   E  E  E  E  E  E  E  E  A  A  A  A  A  A  A  A 
G|-----------------------|-----------------------| 
D|-----------------------|-----------------------| 
A|-----------------------|-----------------------| 
E|0--0--0--0--0--0--0--0-|5--5--5--5--5--5--5--5-| 

   1  &  2  &  3  &  4  &  1  &  2  &  3  &  4  & 
   E     B  G# E  D# B  G# C#       G#     
G|-----------------------|-----------------------| 
D|-----------------------|---------6-------------| 
A|------------7--6-------|-----------------------| 
E|0-----7--4--------7--4-|9----------------------| 

   1  &  &  &  2  &  &  &  3  &  &  &  4  &  &  &  
   E                             A  A  A  A  A  A# 
G|-----------------------------------------------| 
D|-----------------------------------------------| 
A|7----------------------------------------------| 
E|------------------------------5--5--5--5--5--6-| 

At 2:51 (2 times) 
   1  &  &  &  2  &  &  &  3  &  &  &  4  &  &  &  
   B  B  B  B        B  B  B  B           F# G  G#     
G|-----------------------------------------------| 
D|-----------------------------------------------| 
A|-----------------------------------------------| 
E|7--7--7--7--------7--7--7--7-----------2--3--4-| 

   1  &  &  &  2  &  &  &  3  &  &  &  4  &  &  &  
   A  A  A  A        A  A  A  A           G# A  A#  
G|-----------------------------------------------| 
D|-----------------------------------------------| 
A|-----------------------------------------------| 
E|5--5--5--5--------5--5--5--5-----------4--5--6-| 

At 3:04 
   1  &  &  &  2  &  &  &  3  &  &  &  4  &  &  &  
   B  B  B  B        B  B  B  B           F# G  G#     
G|-----------------------------------------------| 
D|-----------------------------------------------| 
A|-----------------------------------------------| 
E|7--7--7--7--------7--7--7--7-----------2--3--4-| 

   1  &  2  &  3  &  4  &   
   A  A  A  B     F#    E 
G|-----------------------| 
D|-----------------------| 
A|---------------9-----7-| 
E|5--5--5--7-------------| 

   1  &  &  &  2  &  &  &  3  &  &  &  4  &  &  &  1  &  2  &  3  &  4  & 
   E        E  E     F#          G#          A     A  A     A  A                 
G|-----------------------------------------------|-----------------------| 
D|-----------------------------------------------|-----------------------| 
A|-----------------------------------------------|-----------------------| 
E|0--------0--0-----2-----------4-----------5----|5--5-----5--5----------| 

   1  &  &  &  2  &  &  &  3  &  &  &  4  &  &  &  1  &  2  &  3  &  4  & 
   E        E  E     F#          G#          A        A        B  B  E  D# 
G|-----------------------------------------------|-----------------------| 
D|-----------------------------------------------|-----------------------| 
A|-----------------------------------------------|-----------------------| 
E|0--------0--0-----2-----------4-----------5----|---5--------7--7--12-11| 

   1  2  3  4  1  2  3  4  1  2  3  4  1  &  2  &  3  &  4  & 
   E                                            C# B  B  E  D# 
G|-----------|-----------|-----------|-----------------------| 
D|-----------|-----------|-----------|-----------------------| 
A|-----------|-----------|-----------|------------------7--6-| 
E|0----------|-----------|-----------|---------9--7--7-------| 

   1  &  2  &  3  &  4  &  1  &  2  &  3  &  4  & 
   E  E  E  E  E  E  E  E  A  A  A  A  A  A  A  A 
G|-----------------------|-----------------------| 
D|-----------------------|-----------------------| 
A|-----------------------|-----------------------| 
E|0--0--0--0--0--0--0--0-|5--5--5--5--5--5--5--5-| 

   1  &  2  &  3  &  4  &  1  &  &  &  2  &  &  &  3  &  &  &  4  &  &  & 
   E     B  G# E  D# B  G# C#       B  B#    B                 G#    F# 
G|-----------------------|-----------------------------------------------| 
D|-----------------------|-----------------------------------------------| 
A|------------7--6-------|-----------------------------------------------| 
E|0-----7--4--------7--4-|9--------7--6-----7-----------------4-----2----| 

   1  &  2  &  3  &  4  &  1  &  2  &  3  &  4  & 
   E  E  E  E  E  E  E  E  A  A  A  A  A  A  A  A 
G|-----------------------|-----------------------| 
D|-----------------------|-----------------------| 
A|-----------------------|-----------------------| 
E|0--0--0--0--0--0--0--0-|5--5--5--5--5--5--5--5-| 

   1  &  2  &  3  &  4  &  1  &  &  &  2  &  &  &  3  &  &  &  4  &  &  & 
   E     B  G# E     B  G# C#       C# C#    E                 G  F# F     
G|-----------------------|-----------------------------------------------| 
D|-----------------------|-----------------------------------------------| 
A|------------7--------4-|------------------7----------------------------| 
E|0-----7--4--------7----|9--------9--9-----------------------3--2--1----| 

   1  &  2  &  3  &  4  &  1  &  &  &  2  &  &  &  3  &  &  &  4  &  &  & 
   E     B  G# E     B  G# C#       C# C#    G# 
G|-----------------------|-----------------------------------------------| 
D|-----------------------|-----------------------------------------------| 
A|------------7----------|-----------------------------------------------| 
E|0-----7--4--------7--4-|9--------9--9-----4----------------------------| 

At 4:09 (2 times) 
   1  &  2  &  3  &  4  &  
   E  E     G#     
G|-----------------------| 
D|-----------------------| 
A|-----------------------| 
E|0--0-----4-------------| 

At 4:15 
   1  2  3  4  
   E     
G|-----------| 
D|-----------| 
A|-----------| 
E|0----------| 
    	
fixar
fixar inscrever-se

enviado porenviado por: ang-letra
cifra enviadaCorrigida por: sem correções
logo top cifrasComente
ico música do artistaMúsicas deste artista
ico curtiuCurtiu?
ico destaqueDestaque
Petaxxon Comunicação Online

Cifras.com.br - Melhor e mais completo site de cifras e tablaturas do Brasil Mais de 1 milhão de acordes de músicas cadastradas desde 2003
As informações contidas no nosso site são colaborações de seus usuários e podem conter erros, sendo assim, não nos responsabilizamos sobre nenhuma destas.

close
menos
mais
close
Cor dos acordes:

Cor da letra:

close
Alinhar acordes a direita Alinhar acordes a esquerda Alinhar acordes em baixo Alinhar acordes no topo
close
  Mostrar todos os acordes Esconder acordes muito fáceis Esconder acordes fáceis Esconder acordes intermediários
redimensionar
glossário