Cifras e Tablaturas
Bruno e Marrone

Bruno e Marrone

Ficar Por Ficar

Cifras Cancelar Versão de Impressão Print

Bruno e Marrone - Ficar Por Ficar

Tom: Bm

  			Por Vilson Ferreira 
SÃO MIGUEL DO ARAGUAIA-GO 


G|--------|--------|---------|---------|  
D|--------|--------|---------|---------|  
A|-2---5--|-5-0----|-5-2-2~0-|-2----5--|  
E|--2-3-5-|----3-5-|--5-3----|---2-3--5|  


G|--------|--------|---------|---------|  
D|--------|--------|---------|---------|  
A|-2---5--|-5-0----|-5-2-2~0-|-2----5--|  
E|--2-3-5-|----3-5-|--5-3----|---2-3--5| 
    	
fixar
fixar inscrever-se

enviado porenviado por: VilsonFerreira
cifra enviadaCorrigida por: sem correções
logo top cifrasComente
ico música do artistaMúsicas deste artista
ico curtiuCurtiu?
ico destaqueDestaque
Petaxxon Comunicação Online

Cifras.com.br - Melhor e mais completo site de cifras e tablaturas do Brasil Mais de 1 milhão de acordes de músicas cadastradas desde 2003
As informações contidas no nosso site são colaborações de seus usuários e podem conter erros, sendo assim, não nos responsabilizamos sobre nenhuma destas.

close
menos
mais
close
Cor dos acordes:

Cor da letra:

close
Alinhar acordes a direita Alinhar acordes a esquerda Alinhar acordes em baixo Alinhar acordes no topo
close
  Mostrar todos os acordes Esconder acordes muito fáceis Esconder acordes fáceis Esconder acordes intermediários
redimensionar
glossário