Cifras e Tablaturas
Capital Inicial

Capital Inicial

Quatro Vezes Você (ver. 2)

Cifras Cancelar Versão de Impressão Print

Capital Inicial - Quatro Vezes Você (ver. 2)

Tom: E

  			Quatro vezes você - Capital inicial 
 
Intro: 
 
G ---------------------- 
D ---------------------- 
A -------2-------------- 
E -0--3-----3/5-5-5-5--- 
 
Levada da Musica: ( E | A ) 
Deixar notas soando. 
G ---------------- 
D ---------------- 
A --------0h-4---- 
E -0h-3----------- 
 
Riff (Parece muito.... / Parece estranho ....) ( G | A ) 
 
G ------------------------------- 
D ------------------------------- 
A ------------------------------- 
E -3-3-3-3-3-3-3-5-5-5-5-5-5-5-5- 
 
Refrão ( G | B | G | B | C | D | A | A ) 
 
G -------------------------------------------------------- 
D -------------------------------------------------------- 
A -----------------------------------------3-3-3-3-5-5-5-5 
E -3/12\3--3-3-3-3-7-7-7-7-3-3-3-3-7-7-7-7---------------- 
 
Continuação. 
 
G ------------------------------------------ 
D ------------------------------------------ 
A -12-12-12-12-12-12-12-12------------------ 
E ------------------------------------------ 
 
Durante o Solo: 
Igual a intro. 
G ---------------------- 
D ---------------------- 
A -------2-------------- 
E -0--3-----3/5-5-5-5--- 
 
Um abraço e boa sorte! 
 
 

    	

enviado porenviado por: Marcofesta
cifra enviadaCorrigida por: sem correções
logo top cifrasComente
ico música do artistaMúsicas deste artista
ico curtiuCurtiu?
ico destaqueDestaque
Petaxxon Comunicação Online

Cifras.com.br - Melhor e mais completo site de cifras e tablaturas do Brasil Mais de 1 milhão de acordes de músicas cadastradas desde 2003
As informações contidas no nosso site são colaborações de seus usuários e podem conter erros, sendo assim, não nos responsabilizamos sobre nenhuma destas.

close
menos
mais
close
Cor dos acordes:

Cor da letra:

close
Alinhar acordes a direita Alinhar acordes a esquerda Alinhar acordes em baixo Alinhar acordes no topo
close
  Mostrar todos os acordes Esconder acordes muito fáceis Esconder acordes fáceis Esconder acordes intermediários
redimensionar
glossário