Cifras e Tablaturas
CPM 22

CPM 22

Um Minuto Para o Fim do Mundo

Ano: 2005
Album : Felicidade Instantânea

Cifras Cancelar Versão de Impressão

CPM 22 - Um Minuto Para o Fim do Mundo

Tom: Am

  			Um minuto para o fim do mundo  -  CPM22 
 
baixo sozinho: 
G|-9-9-9-9-9-9-9-9---9--9--9--9--9--9--9--9---------| 
D|-7-7-7-7-7-7-7-7---10-10-10-10-10-10-10-10--------|    6x 
A|--------------------------------------------------|    
E|--------------------------------------------------| 
 
G|--------------------------------------------------| 
D|-12-12-12-12-12-12-12-12-10-10-10-10-10-10-10-10--| 
A|-10-10-10-10-10-10-10-10-8--8--8--8--8--8--8--8---| 
E|--------------------------------------------------| 
 
 
junto com a bateria: 
G|--------------------------------------------------| 
D|--------------------------------------------------|    3x 
A|-0-0-0-0-0-0-0-0-0--------------------------------| 
E|--------------------1-1-1-1-1-1-1-1-1-------------| 
 
G|--------------------------------------------------| 
D|--------------------------------------------------| 
A|-3-3-3-3-3-3-3-3-3--------------------------------| 
E|--------------------3-3-3-3-3-3-3-3-3-------------| 
 
 
 
G|--------------------------------------------------| 
D|--------------------------------------------------|Refrão 1x 
A|-3-3-3-3-3-3-3-3----------------------------------| 
E|-------------------3-3-3-3---1-1-1-1--------------| 
 
G|--------------------------------------------------| 
D|--------------------------------------------------| 
A|-3-3-3-3-3-3-3-3----------------------------------| 
E|-------------------3-3-3-3----15-15-15-15---------| 
 
G|----------------------------------------------------------| 
D|----------------------------------------------------------| 
A|-3-3-3-3-3-3-3-3------------------------------------------| 
E|-------------------3-3-3-3---1-1-1-1-1-1-1--3-3-3-3-3-3-3-| 
 
 
Base do Solo: 
G|--------------------------------------------------| 
D|--------------------------------------------------| 2x 
A|-3-3-3-3-3-3-3-3-3--------------------------------| 
E|--------------------3-3-3-3-3-3-3-3-3-------------| 
 
G|--------------------------------------------------| 
D|--------------------------------------------------| 
A|--------------------------------------------------| 
E|--5-5-5-5-5-5-5-5-5-----1-1-1-1-1-1-1-1-1---------| 
 
Refrão(2x) 
 
Base do Solo: 
G|--------------------------------------------------| 
D|--------------------------------------------------| 2x 
A|-3-3-3-3-3-3-3-3-3--------------------------------| 
E|--------------------3-3-3-3-3-3-3-3-3-------------| 
 
G|--------------------------------------------------| 
D|--------------------------------------------------| 
A|--------------------------------------------------| 
E|--5-5-5-5-5-5-5-5-5-----1-1-1-1-1-1-1-1-1---------| 
 
Final 
G|------------------------------------------------------------| 
D|------------------------------------------------------------| 
A|---------------------------------------------------------3--| 
E|-1-1-1-1-1-1-1-1-1-1-1-1-1-1-1-1-1-1-1-1-1-1-1-1-1-1-1------| 
 
Boa sorte! 

    	
fixar
fixar inscrever-se

enviado porenviado por: Marcofesta
cifra enviadaCorrigida por: sem correções
logo top cifrasComente
ico música do artistaMúsicas deste artista
ico curtiuCurtiu?
ico destaqueDestaque
Petaxxon Comunicação Online

Cifras.com.br - Melhor e mais completo site de cifras e tablaturas do Brasil Mais de 1 milhão de acordes de músicas cadastradas desde 2003
As informações contidas no nosso site são colaborações de seus usuários e podem conter erros, sendo assim, não nos responsabilizamos sobre nenhuma destas.

close
menos
mais
close
Cor dos acordes:

Cor da letra:

close
Alinhar acordes a direita Alinhar acordes a esquerda Alinhar acordes em baixo Alinhar acordes no topo
close
  Mostrar todos os acordes Esconder acordes muito fáceis Esconder acordes fáceis Esconder acordes intermediários
redimensionar
glossário