Cifras e Tablaturas
Dallon Weekes

Dallon Weekes

Sickly Sweet Holidays

Cifras Cancelar Versão de Impressão Print

Dallon Weekes - Sickly Sweet Holidays

Tom:

  • 0:00 / 0:00
  			
Intro 0:06 

G|-5----------------| 
D|---7-5------------| 
A|-------7-5-3------| 
E|----------------3-| 

G|---------------------------------------------------------------| 
D|---------------------------------------------------------------| 
A|-12\3-----3---7-5-----------3-----3-----3---7-5----------3-----| 
E|------3-5---3-----5-3---3-5---5-3---3-5---3-----5-3--3-5---5-3-| 


Verse 0:30 

G|----------------------------------------------------------2---2-----| 
D|----------------------------------------------------------------5-4-| 
A|-3-3-----3-3----7-5-5---------3-----3-3-----3-3----7-5-5------------| 
E|-------3----------------5-3-5---5-3-------3-----------------3-------| 

G|----------------------------------------------------| 
D|----------------------------------------------------| 
A|--------------2-1-0-------------------------3-----3-| 
E|-1----1---0------------1-1--1-1--2-3----3-5---5-3---| 


Interlude 1:00 

G|-----------------------------------------------------------| 
D|-----------------------------------------------------------| 
A|-----3---7-5-----------3-----3-----3---7-5-----------3-----| 
E|-3-5---3-----5-3---3-5---5-3---3-5---3-----5-3---3-5---5-3-| 


verse 2 1:17 

G|---------------------------------------------------------------| 
D|---------------------------------------------------------------| 
A|-3-3-----3-3----7-5-5---------3-5--3-3----3-3----7-5-5-----3-5-| 
E|-------3-----3----------5-3-5-----------3--------------3-5-----| 

G|----------------------------------------------------------------| 
D|--------------------------------3-------4-5-5-4-5-5-4-5-5-5-----| 
A|--------------2-1-0-----------------------------------------7-5-| 
E|-1----1---0------------1-1--1-1--1-3----------------------------| 


Interlude 2 1:47 

G|---5-5-5-5-2-----5-5-5-5-----------------------------| 
D|-------------5-----------5-2---5-5-5-5-2-------------| 
A|-3-------------3-------------------------5-----3-----| 
E|-----------------------------3-------------3-5---5-3-| 

G|---5-5-5-5-------5-5-5-5---------------------------| 
D|-----------5-2-----------5-2---5-5-5-5-2-----5-4-3-| 
A|-3-------------3-------------------------5---------| 
E|-----------------------------3-------------3-------| 

G|-------------------------------------------------------------------------------| 
D|----------------------------------7-7-7-------8-8-8-------9-9-9-------10-10-10-| 
A|--------------2-1-----------5-5-5-------6-6-6-------7-7-7-------8-8-8----------| 
E|-1----1---0-------5-5-3-2-1----------------------------------------------------| 

G|-------------------------| 
D|-4-5-5-4-5-5-4-5-5-5-----| 
A|---------------------7-5-| 
E|-------------------------| 


Intro mimic thing 2:17 

G|--------5----------------------------------------| 
D|----------7-5------------5-5-5-5-5-5-5-5-5-5-5-5-| 
A|-3------------7-5-3------------------------------| 
E|-----3----------------3--------------------------| 


This song structure is whack 2:33  

G|---------------------------------------------------------| 
D|-----------------------------------------------------5-4-| 
A|-3-----3---7-5-----------3-----3-----3---7-5-------5-----| 
E|---3-5---3-----5-3---3-5---5-3---3-5---3------5--3-------| 

G|---------------------------------------------------------5-----| 
D|---------------------------------------------4-5-5-4-5-5-------| 
A|--------------2-1------------------------------------------7-5-| 
E|-1----1---0-------5-3-5--1-1-1-0-1-2-3-3-3-3-------------------| 


But wait, there's more! 3:02 

G|--------------------5------------------------------------| 
D|----------------------7-5--------------------------------| 
A|-3-----3---7-5------------7-5-3-----3---7-5----------3---| 
E|---3-5---3-----5-3--------------3-5---3-----5-3--3-5---5-| 

G|--------------------------------------------------------------| 
D|------------------------------------------------------5-------| 
A|-3-----3---7-5-----------3-----3-----3---7-5------5-7---7-5-3-| 
E|---3-5---3-----5-3---3-5---5-3---3-5---3-----5-3--------------| 

*********************************** 

\ Slide down 

*********************************** 
    	

enviado porenviado por: ang-letra
cifra enviadaCorrigida por: sem correções
logo top cifrasComente
ico música do artistaMúsicas deste artista
ico curtiuCurtiu?
ico destaqueDestaque
Petaxxon Comunicação Online

Cifras.com.br - Melhor e mais completo site de cifras e tablaturas do Brasil Mais de 1 milhão de acordes de músicas cadastradas desde 2003
As informações contidas no nosso site são colaborações de seus usuários e podem conter erros, sendo assim, não nos responsabilizamos sobre nenhuma destas.

close
menos
mais
close
Cor dos acordes:

Cor da letra:

close
Alinhar acordes a direita Alinhar acordes a esquerda Alinhar acordes em baixo Alinhar acordes no topo
close
  Mostrar todos os acordes Esconder acordes muito fáceis Esconder acordes fáceis Esconder acordes intermediários
redimensionar
glossário