Cifras e Tablaturas
DC Talk

DC Talk

Jesus Freak (ver. 2) Tablatura de Baixo

Cifras Cancelar Versão de Impressão
cifras

DC Talk - Jesus Freak (ver. 2)

fixar na tela  
Exibindo: vídeo-aula ver clipes redimensionar

Tom:

  


Album: 
Date: 1995 
Label: EMD/CHORDANT 
Genre: Christian/Gospel
Tabbed By: BASSdude69 a/k/a Airik
Email: skibumbassdude@yahoo.com


Intro / Main Chorus
G:--------------------------------|
D:--------------------------------|
A:----------------6-6-------------|
E:-1-1-1-4-4-4-4------6-6-8-8-8-8-|

Verse Riff 1
G:-----------------|
D:-3---------------|
A:-----4-----1-----|
E:-----------------|

Verse Riff 2
G:---------------------------------|
D:-3-3-3-3-------------------------|
A:---------4-4-4-4-1-1-1-1-1-1-1-1-|
E:---------------------------------|

Bass Riff Before Guitar Solo
G:------10-12-13--|------10-12-10-10--|
D:---10-----------|---10--------------|
A:-8--------------|-8-----------------|
E:----------------|-------------------|

Bass Riff Behind Guitar Solo
G:---------------------------------|
D:---------------------------------|
A:-555---5---5-----555---5---5-5-5-|
E:----444-444-4640----444-444-4-4--|

  

top 5 | dc talk
top gospel
Outras músicas do artista letras do(a) DC Talk
Top cifras »Top artistas »
Petaxxon Comunicação Online
Cifras.com.br - Melhor e mais completo site de cifras e tablaturas do Brasil
Mais de 1 milhão de acordes de músicas cadastradas desde 2003
As informações contidas no nosso site são colaborações de seus usuários e podem conter erros, sendo assim, não nos responsabilizamos sobre nenhuma destas.
close
menos
mais
close
Cor dos acordes:

Cor da letra:

 

save
close
close
 
redimensionar