Cifras e Tablaturas
DC Talk

DC Talk

Jesus Freak (ver. 3)

Cifras Cancelar Versão de Impressão
cifras

DC Talk - Jesus Freak (ver. 3)

fixar na tela  
Exibindo: vídeo-aula ver clipes redimensionar

Tom:

  



tabed by James Jal_K_dowg@hotmail.com

Main intro/Chors Riff
G---------------------
D---------------------
A--------66-----------
E1114444--668888------

Verse
G---------------------
D3--------------------
A----4---1------------
E---------------------

Verse 2 (Rap part)
G---------------------
D3333-----------------
A----4444-11111111----
E---------------------

Before Guitar Solo
G-----3-1-----3-1------
D-3-------1-3------1---
A----------------------
E----------------------
Behind Guitar Solo
G-----------------------------------------------
D-----------------------------------------------
A5555-----5-----5------5555-----5----5-5-5------
E-----444---444---4640------444---444---4-4-----

  

top 5 | dc talk
top gospel
Outras músicas do artista letras do(a) DC Talk
Top cifras »Top artistas »
Petaxxon Comunicação Online
Cifras.com.br - Melhor e mais completo site de cifras e tablaturas do Brasil
Mais de 1 milhão de acordes de músicas cadastradas desde 2003
As informações contidas no nosso site são colaborações de seus usuários e podem conter erros, sendo assim, não nos responsabilizamos sobre nenhuma destas.
close
menos
mais
close
Cor dos acordes:

Cor da letra:

 

save
close
close
 
redimensionar