Cifras e Tablaturas
Earth, Wind and Fire

Earth, Wind and Fire

Let's Groove Tablatura de Baixo Verificada

Compositor : (Maurice White / Wayne Vaughn)

Cifras Cancelar Versão de Impressão
cifras

Earth, Wind and Fire - Let's Groove

fixar na tela  
Exibindo: vídeo-aula ver clipes redimensionar

Tom:

Em7

  
Parte 1: 

G|---------------------------------4---4---------------------| 
D|-----------------------------------------------------------| 
A|-------------2-0-2-------------2---2---------------2-0-2---| 
E|-0-3-3/5-3-2-------0-3-3/5-3-2---------0-3-3/5-3-2-------0-| 

G|-----------4-4---4----| 
D|----------------------| 
A|---------2-----2------| 
E|-3-5-3-2-----------0--| 


Parte 2: 

G|-------------------------------------------------------------------| 
D|---------------------7-----------------------5-5-5-4-4-4-4-4-4-4-4-| 
A|-----------7-7-7---7-------7-7-7\3-3-3-3-4-5-----------------------| 
E|-5-5-5-6-7-------5-----6-7-----------------------------------------| 

G|-----------------| 
D|-----------------| 
A|-----------------| 
E|-5-5\------------| 


  

top 5 | earth, wind and fire
top disco
Outras músicas do artista letras do(a) Earth, Wind and Fire
Top cifras »Top artistas »
Petaxxon Comunicação Online
Cifras.com.br - Melhor e mais completo site de cifras e tablaturas do Brasil
Mais de 1 milhão de acordes de músicas cadastradas desde 2003
As informações contidas no nosso site são colaborações de seus usuários e podem conter erros, sendo assim, não nos responsabilizamos sobre nenhuma destas.
close
menos
mais
close
Cor dos acordes:

Cor da letra:

 

save
close
close
 
redimensionar