Cifras e Tablaturas
Edguy

Edguy

Nailed To The Wheel

Compositor : (Edguy)

Cifras Cancelar Versão de Impressão Print

Edguy - Nailed To The Wheel

Tom:

  			Transcribed by: AndrÈ Baida from BRAZIL! 
Email: [email protected] 
 
Hey there folks! This is the most heavier edguy song!  
And I really like it! So, enjoy the tab...any doubts, feel 
free to send me an email!!  
 
Stay savage! 
 
Tune: Half-Step Down 
 
Note: "*"s are used to represent the same note X times (listen to the song) 
 
 
After the slow intro... 
 
Gb------|------|--- 
Db------|------|--- 
Ab---5--|---5--|--- 
Eb------|------|--- 
                                                                               
Vocals 
 
Gb--------------------------------|--------------------------------|-- 
Db--------------------------------|--------------------------------|-- 
Ab------7-----5-----8-----5-----7-|-----7-----8-----10-----8-----5-|-- 
Eb--0-0---0-0---0-0---0-0---0-0---|-0-0---0-0---0-0----0-0---0-0---|-- 
                                                                               
Gb--------------------------------|---------------------------------|-- 
Db--------------------------------|---------------------------------|-- 
Ab------7-----5-----8-----5-----7-|-3-3-3-3-3-3-3-3-5-5-5-5-5-5-5-5-|-- 
Eb--0-0---0-0---0-0---0-0---0-0---|---------------------------------|-- 
                                                                               
Bridge 
 
Gb-----------------------------|------------------------|--- 
Db-----------------------------|------------------------|--- 
Ab--------------5*--3*--7*--5*-|-----5*--3*------3*--2*-|--- 
Eb--3*--7*--0*-----------------|-0*----------3*---------|--- 
                                                                               
Chorus 
 
Gb---------------------------|--------------||--------|--- 
Db-----------------4-5-4-----|--------------||--------|--- 
Ab-----------7-6-7-------5-7-|------3-5-----||-3-5----|--- 
Eb--0*-1-0*------------------|-0*-------3*--||-----3*-|--- 
                                                                               
Pre-Solo 1 
 
Gb----------------------|-- 
Db----------------------|-- 
Ab----------------------|-- 
Eb--0-0--0-0--0-0--0-0--|-- 
                                                                               
Solo 1 (Repeat Vocals) 
 
Vocals, Bridge and Chorus, then: 
 
Bridge II. 
                                                                         
Gb---------||-------------------------------------------|--- 
Db--5h7----||-------------------------------------------|--- 
Ab------0*-||------------------7-8-7-5------------------|--- 
Eb---------||--0-0-1-0--3-1-0-----------0-0-1-0--3-1-0--|--- 
 
|-| --> repeat 
 
Gb----------------4---||-------------------------------------------|--- 
Db--|5h7-7*|--5-7---5-||-------------------------------------------|--- 
Ab--------------------||------------------7-8-7-5------------------|--- 
Eb--------------------||--0-0-1-0--3-1-0-----------0-0-1-0--3-1-0--|--- 
 
Solo 2 
 
Gb------4----||-- 
Db--5-7---7--||-- 
Ab-----------||-- 
Eb-----------||-- 
 
Solo 3 
 
Gb--------------------------------||--- 
Db--------------------------------||--- 
Ab-----------------7------3-5-----||--- 
Eb--0*-|1p0*|-1-0*---0*-------3*--||--- 
 
Gb---------------|-- 
Db--10-9-7----12-|-- 
Ab---------10----|-- 
Eb---------------|-- 
 
Repeat Chorus and then: 
 
Gb----------------------|-- 
Db----------------------|-- 
Ab----------------------|-- 
Eb--0-0--0-0--0-0--0-0--|-- 
 
End. 
    	
fixar
fixar inscrever-se

enviado porenviado por: eduardo_lyvio
cifra enviadaCorrigida por: sem correções
logo top cifrasComente
ico música do artistaMúsicas deste artista
ico curtiuCurtiu?
ico destaqueDestaque
Petaxxon Comunicação Online

Cifras.com.br - Melhor e mais completo site de cifras e tablaturas do Brasil Mais de 1 milhão de acordes de músicas cadastradas desde 2003
As informações contidas no nosso site são colaborações de seus usuários e podem conter erros, sendo assim, não nos responsabilizamos sobre nenhuma destas.

close
menos
mais
close
Cor dos acordes:

Cor da letra:

close
Alinhar acordes a direita Alinhar acordes a esquerda Alinhar acordes em baixo Alinhar acordes no topo
close
  Mostrar todos os acordes Esconder acordes muito fáceis Esconder acordes fáceis Esconder acordes intermediários
redimensionar
glossário