Cifras e Tablaturas
Edson Gomes

Edson Gomes

Fogo Na Babilônia

Cifras Cancelar Versão de Impressão Print

Edson Gomes - Fogo Na Babilônia

Tom: Dm

  			3X 
G|------------------------------| 
D|------------------------------| 
A|-5-5-5-3-5-5-3--------3-5-3---| 
E|---------------5-5--5-------5-| 

G|----------------------------| 
D|----------------------------| 
A|-5-5-5-3-5-5-3--------3---3-| 
E|---------------5-5--5---5---| 


4X 
G|---------------------------| 
D|---------------------------| 
A|-----------------7-5-7-5---| 
E|-7-5-7-5-3-7-5-5---------5-| 

************************************** 
Sempre sinto uma nota errada nessa 
parte, mas não sei qual é e se  
realmente ta errado ou é meu ouvido  
que ta me enganando. 
************************************** 
************************************** 
G|--------------------------------| 
D|-2-2-2---2----------------------| 
A|-------5----------2---2-2-5-2---| 
E|------------5-5-5---5---------5-| 


G|-----------------------------------| 
D|-2-2-2---2-------------------------| 
A|-------5----------2---2-2-5-2---2--| 
E|------------5-5-5---5---------5----| 
************************************** 


G|--------------------------------| 
D|--------------------------------| 
A|-5-5-5-3-5-5-3--------2-5-2---5-| 
E|---------------5-5--5-------5---| 


2X 
G|----------------------------| 
D|----------------------------| 
A|-5-5-5-3-5-5-3--------2---2-| 
E|---------------5-5--5---5---| 


2X 
G|--------------------------| 
D|--------------------------| 
A|----------------7-5-7-5---| 
E|7-5-7-5-3-7-5-5---------5-| 


3X 
G|------------------------------| 
D|------------------------------| 
A|-5-5-5-3-5-5-3--------2-5-2---| 
E|---------------5-5--5-------5-| 


G|----------------------------| 
D|----------------------------| 
A|-5-5-5-3-5-5-3--------2---2-| 
E|---------------5-5--5---5---| 


2X 
G|--------------------------| 
D|--------------------------| 
A|----------------7-5-7-5---| 
E|7-5-7-5-3-7-5-5---------5-| 


7X 
G|------------------------------| 
D|------------------------------| 
A|-5-5-5-3-5-5-3--------2-5-2---| 
E|---------------5-5--5-------5-| 


************************************* 
TRECHO O QUAL EU NÃO CONSEGUI CONCLUIR. 
Só consegui esses pedaços, mas ainda 
faltam umas notas. 
************************************* 
************************************* 
G|----------------------------------| 
D|----------------------------------| 
A|-----------3--3-3-3---------------| 
E|-1-1-1-1-2----------5-2-----------| 
- 
G|----------------------------------| 
D|----------------------------------| 
A|----------------------------------| 
E|-1-1-1-1--------------------------| 

G|----------------------------------| 
D|----------------------------------| 
A|-----------3--3-3-3---------------| 
E|-1-1-1-1-2----------5-2-----------| 

G|----------------------------------| 
D|----------------------------------| 
A|----------------------------------| 
E|-1-1-1-1--------------------------| 
************************************* 
************************************* 


4X 
G|------------------------| 
D|------------------------| 
A|-3---3---4-3----3-------| 
E|---5---5------5---5-3-5-| 


7X 
G|------------------------------| 
D|------------------------------| 
A|-5-5-5-3-5-5-3--------2-5-2---| 
E|---------------5-5--5-------5-| 


************************************* 
TRECHO O QUAL EU NÃO CONSEGUI CONCLUIR. 
Só consegui esses pedaços, mas ainda 
faltam umas notas. 
************************************* 
************************************* 
G|----------------------------------| 
D|----------------------------------| 
A|-----------3--3-3-3---------------| 
E|-1-1-1-1-2----------5-2-----------| 
- 
G|----------------------------------| 
D|----------------------------------| 
A|----------------------------------| 
E|-1-1-1-1--------------------------| 

G|----------------------------------| 
D|----------------------------------| 
A|-----------3--3-3-3---------------| 
E|-1-1-1-1-2----------5-2-----------| 

G|----------------------------------| 
D|----------------------------------| 
A|----------------------------------| 
E|-1-1-1-1--------------------------| 
************************************* 
************************************* 


Repetir Ate A Musica Acabar 
G|------------------------| 
D|------------------------| 
A|-3---3---4-3----3-------| 
E|---5---5------5---5-3-5-| 
    	
fixar
fixar inscrever-se

enviado porenviado por: Elias357951
cifra enviadaCorrigida por: sem correções
logo top cifrasComente
ico música do artistaMúsicas deste artista
ico curtiuCurtiu?
ico destaqueDestaque
Petaxxon Comunicação Online

Cifras.com.br - Melhor e mais completo site de cifras e tablaturas do Brasil Mais de 1 milhão de acordes de músicas cadastradas desde 2003
As informações contidas no nosso site são colaborações de seus usuários e podem conter erros, sendo assim, não nos responsabilizamos sobre nenhuma destas.

close
menos
mais
close
Cor dos acordes:

Cor da letra:

close
Alinhar acordes a direita Alinhar acordes a esquerda Alinhar acordes em baixo Alinhar acordes no topo
close
  Mostrar todos os acordes Esconder acordes muito fáceis Esconder acordes fáceis Esconder acordes intermediários
redimensionar
glossário