Cifras e Tablaturas
Eminem

Eminem

Cleaning Out My Closet

Cifras Cancelar Versão de Impressão Print

Eminem - Cleaning Out My Closet

Tom:

  • 0:00 / 0:00
  			

G ----------------------------------14-------------------------------------------------------
D ---------------------------14----------14------------------------------------------------
A -------12---------15------------------------15---14----------------------------------
E ----------------------------------------------------------------------------------------------     X2

G -------------------------------------------------------------13---14---16---13---14---
D ----------------------------14---12--------------------------------------------------------
A --------------12---14-----------------14---13---------------------------------------------
E -------13----------------------------------------------------------------------------------------

Repeat through whole song

    	

enviado porenviado por: anônimo
cifra enviadaCorrigida por: sem correções
logo top cifrasComente
ico música do artistaMúsicas deste artista
ico curtiuCurtiu?
ico destaqueDestaque
Petaxxon Comunicação Online

Cifras.com.br - Melhor e mais completo site de cifras e tablaturas do Brasil Mais de 1 milhão de acordes de músicas cadastradas desde 2003
As informações contidas no nosso site são colaborações de seus usuários e podem conter erros, sendo assim, não nos responsabilizamos sobre nenhuma destas.

close
menos
mais
close
Cor dos acordes:

Cor da letra:

close
Alinhar acordes a direita Alinhar acordes a esquerda Alinhar acordes em baixo Alinhar acordes no topo
close
  Mostrar todos os acordes Esconder acordes muito fáceis Esconder acordes fáceis Esconder acordes intermediários
redimensionar
glossário