Cifras e Tablaturas
Eminem

Eminem

Sing For The Moment

Cifras Cancelar Versão de Impressão Print

Eminem - Sing For The Moment

Tom:

  • 0:00 / 0:00
  			








 

Eminem Show

Transcribed by Chad
Standard Tuning

I know this is at least 99.5% correct

PLEASE RATE AND COMMENT

Intro
G-----------------------------------------------------
D---------------15/17-15/17-17-15-15/17---------------
A------------15-------------------------15\----13/15--
E-0-8-6/8-13--------------------------------13\-------13

Verse/Chorus
G----------------
D-----------5-6-8
A-8-6-4-6-8------
E----------------

Chorus Variation
G----------------
D----------------
A----------------
E-8-9-8-9-8-9-8-9

    	

enviado porenviado por: anônimo
cifra enviadaCorrigida por: sem correções
logo top cifrasComente
ico música do artistaMúsicas deste artista
ico curtiuCurtiu?
ico destaqueDestaque
Petaxxon Comunicação Online

Cifras.com.br - Melhor e mais completo site de cifras e tablaturas do Brasil Mais de 1 milhão de acordes de músicas cadastradas desde 2003
As informações contidas no nosso site são colaborações de seus usuários e podem conter erros, sendo assim, não nos responsabilizamos sobre nenhuma destas.

close
menos
mais
close
Cor dos acordes:

Cor da letra:

close
Alinhar acordes a direita Alinhar acordes a esquerda Alinhar acordes em baixo Alinhar acordes no topo
close
  Mostrar todos os acordes Esconder acordes muito fáceis Esconder acordes fáceis Esconder acordes intermediários
redimensionar
glossário