Emperor

Emperor

Thus Spake The Nightspirit
nível sem nível
[Intro ]

G|-------------------------------------------------------------------------| 
D|-------------------------------------------------------------------------| 
A|-----0----------------0----1-3-0-------0-------------0-------1-3-1-------| 
E|0-1-0------------0-1-0------------0-1-0---------0-1-0-------------111111-| 

Verse x2 

G|--------------------------------------------------------------------| 
D|--------------------------------------------------------------------| 
A|-------------------------55555555-77777777-66666666-3333333---------| 
E|0000000-22222222-33333333----------------------------------11111111-| 

G|--------------------------------------------------------------------| 
D|--------------------------------------------------------------------| 
A|------------------------11111111-000000000--------------------------| 
E|000000-22222222-33333333------------------111111111-4444444-1111111-| 

Choruus x2 

G|------------------------------------------------------------------------| 
D|-------------------------------------222--------------------------------| 
A|-----------66666------------------------33333-22222-----------111-00----| 
E|00000-55555------111-00000-1-333-444---------------33333-22222------111-| 


After the Verse and the Chorus 

G|-------------------------------------------------------------------------------------------| 
D|-------------------------------------------------------------------------------------------| 
A|5------------------00000-22222---------------------------2222-1111-------------------------| 
E|-44444-33333-22222------------44444444444-0000000-3333333---------33333-22222-33333-000000-| 

G|-----------------------------------------------------------------------------3-| 
D|----------------------------------------------------------------------------2--| 
A|5------------------00000-22222---------------------------2222-1111---7--2--1---| 
E|-44444-33333-22222------------44444444444-0000000-3333333----------0-----------| 

G|----------------------------------------------------------------------------------| 
D|----------------------------------------------------------------------------------| 
A|--------4-----2----------------------4-0-------------0000-4444-0000-2222----22222-| 
E|0-2222-0-4-5-4-0-222222222222-----------4-1-2222-4444-------------------4444------|  


G|----------------------------------------| x4 
D|----------------------------------------| 
A|3333333333333333333---------------------| 
E|-------------------22222222222222222222-| 

G|-------------------------------------------------| x4 
D|000000-111111------------------------------------|  
A|-------------111111-000000-----------------------| 
E|--------------------------333333-1111111-3333333-| 

G|----------3-------------------------------------------------------------------------------------| 
D|---------2--------------------------------------------------------------------------------------| 
A|--7--2--1-------------4-----2----------------------4-0-------------0000-4444-0000-2222----22222-| 
E|0-------------0-2222-0-4-5-4-0-222222222222-----------4-1-2222-4444-------------------4444------|  

G|----------------------------------------| x4 
D|----------------------------------------| 
A|3333333333333333333---------------------| 
E|-------------------22222222222222222222-| 

G|-------------------------------------------------| x4 
D|000000-111111------------------------------------| 
A|-------------111111-000000-----------------------| 
E|--------------------------333333-1111111-3333333-| 

G|----------------------------------------------------------------------------| x2 
D|----------------------------------------------------------------------------| 
A|---------------------5--------------0000-2222---------------------2222-1111-| 
E|3333-2222-33333-0000--4444-3333-2222---------44444444444-0000-3333----------| 

Outro 

G|--------------------------------------------| Repeat Many Times 
D|--------------------------------------------| 
A|-3------3------------------------3--------3-| 
E|----------------0--------0------------------| 

G|-----------------| 
D|-0---------------| 
A|----3--2---------| 
E|----------3--2-0-|

Enviado por: Gustavo Silva

Corrigido por: sem correções