Cifras e Tablaturas
Engenheiros do Hawaii

Engenheiros do Hawaii

Muros e Grades

Ano: 1991
Album : Várias Variáveis
Compositor : (Gessinger / Licks)

Cifras Cancelar Versão de Impressão Print

Engenheiros do Hawaii - Muros e Grades

Tom:

  • 0:00 / 0:00
  			Intro e Verso: 
 
G :----------------------------------------------------------------------------------------------------------------------| 
D :----------------------------------------------------------------------------------------------------------------------|         2x 
A :----------------------------------------------------------------------------------------------------------------------| 
E :--0-0-0-0-0-0-0-4-4-4-4-4-4-4-5-5-5-5-5-5-5-2-2-2-2-2-2-2-----------------------------------------------|   
 
 
Refrão: 
 
G :----------------------------------------------------------------------------------------------------------------------------------------| 
D :-------6-4-3-4-------4-2-1-2--------------------------------------6-4-3-4-------4-2-1-2-----------------------------------------|      2x 
A :-4--4-----------2--2-----------------4-2-1-------4-7-5-------4------------2--2------------------4-2-1--------4-7-5--------------|       
E :---------------------------------2--2--------2/5-5--------5-7---------------------------------2--2--------2/5-5--------5------------| 
 
Um dia super.... 
 
G :-----------------------------------------------------------------------------------------------------------------------------| 
D :------------------------------------------------------------------------------------------------------------------------------|                    2x  
A :-------------------------------------------------------------------------------------------2-2-2-2-2-----------------------| 
E :-4-4-4-4-4-5-5-5-5-5-5-4-4-4-4-4-5-5-5-5-5-4-4-4-4-4-5-5-5-5-5-6-6-6-6-6------------------------------------| 
 
 
Solo: 
 
G :----------------------------------------------------------------------------------------------------------------------| 
D :----------------------------------------------------------------------------------------------------------------------|         2x 
A :----------------------------------------------------------------------------------------------------------------------| 
E :--0-0-0-0-0-0-0-4-4-4-4-4-4-4-5-5-5-5-5-5-5-2-2-2-2-2-2-2-----------------------------------------------|   
 
 
 
Alguma correção, duvida, etc. mandar email para [email protected] 
OBS: aí gente é minha primeira tablatura, espero que vcs tenho gostado!
Contei com ajuda do meu parceiro Elton guitarrista e vocal dos Angolanos. 
Aí vai meu alo para a galera da banda Angolanos que no final do ano se Deus
quiser estarão aí detonando.  
Valeu!!!!!! 
 

    	

enviado porenviado por: eduardo_lyvio
cifra enviadaCorrigida por: sem correções
logo top cifrasComente
ico música do artistaMúsicas deste artista
ico curtiuCurtiu?
ico destaqueDestaque
Petaxxon Comunicação Online

Cifras.com.br - Melhor e mais completo site de cifras e tablaturas do Brasil Mais de 1 milhão de acordes de músicas cadastradas desde 2003
As informações contidas no nosso site são colaborações de seus usuários e podem conter erros, sendo assim, não nos responsabilizamos sobre nenhuma destas.

close
menos
mais
close
Cor dos acordes:

Cor da letra:

close
Alinhar acordes a direita Alinhar acordes a esquerda Alinhar acordes em baixo Alinhar acordes no topo
close
  Mostrar todos os acordes Esconder acordes muito fáceis Esconder acordes fáceis Esconder acordes intermediários
redimensionar
glossário