Cifras e Tablaturas
Engenheiros do Hawaii

Engenheiros do Hawaii

O Papa é Pop

Ano: 1990
Album : Maxximum: Engenheiros do Hawaii
Compositor : (Gessinger)

Cifras Cancelar Versão de Impressão Print

Engenheiros do Hawaii - O Papa é Pop

Tom:

  			(Versão ao vivo) 
 
O Começo da musica e o Refrão, a tablatura é feita por Slap. 
 
G----7--7---7---7---7------------------------3--3------5-5-----7-7--7-7-7--- 
D------------------------5--5---5---5---5-----------------------------------   2x 
A--5------5---5---5------------------------1------3-3------5-5-------------- 
E----------------------3------3---3---3------------------------------------- 
 
 
G----7----9----10-----14----12----10-----9----7-------3-3-----5-5------7-7--7-7--- 
D---------------------------------------------------------------------------------       2x 
A--5---7----8-----12-----10----8------7----5------1-1-----3-3------5-5------------  
E--------------------------------------------------------------------------------- 
 
 
G-------------------------------------------------------- 
D---------------------------8----8-------10---10--------- 
A--8--8-7--7-5--5-3-5----8----8-------10----10-----------  
E----------------------6-------------8------------------- 
 
G----------8\11----------------------------------------------- 
D-------10-------------------------------------------------- 
A----10----------------------------------------------------  
E--8------------------------------------------------------- 
 
Ultima Parte 
 
"John Lennon Levou..." 
G--------------------------------------------------------- 
D--------------------------------------------------------- 
A---5---------5--------------------------------------------  
E-------3----------3--------------------------------------- 
 
G--------------------------------------------------------- 
D---------------5-----------------------------------------     2x       
A---5--5-5-5-8--------------------------------------------  
E--------------------------------------------------------- 
 
G------------------------------------------------------------------------------ 
D---------------5--7--5--------------------------------------------------------            
A---5--5-5-5-8----------8--5---------------3--5--3---3--------8-------10-------  
E-----------------------------3--3-3-3--6----------6-----6-6----6--8-8---8----- 
 
 
Na segunda vez faz esta tablatura 
 
G--------------------------------------------------------- 
D---------------5-----------------------------------------     2x       
A---5--5-5-5-8--------------------------------------------  
E--------------------------------------------------------- 
 
G--------------------------------------------------------------------------- 
D---------------5--7--5-------------------------------------------10--7-----            
A---5--5-5-5-8----------8--5---------------3--5--3---3-------------8--5-----  
E-----------------------------3--3-3-3--6----------6-----6-6-6-6------------ 
 

    	
fixar
fixar inscrever-se

enviado porenviado por: eduardo_lyvio
cifra enviadaCorrigida por: sem correções
logo top cifrasComente
ico música do artistaMúsicas deste artista
ico curtiuCurtiu?
ico destaqueDestaque
Petaxxon Comunicação Online

Cifras.com.br - Melhor e mais completo site de cifras e tablaturas do Brasil Mais de 1 milhão de acordes de músicas cadastradas desde 2003
As informações contidas no nosso site são colaborações de seus usuários e podem conter erros, sendo assim, não nos responsabilizamos sobre nenhuma destas.

close
menos
mais
close
Cor dos acordes:

Cor da letra:

close
Alinhar acordes a direita Alinhar acordes a esquerda Alinhar acordes em baixo Alinhar acordes no topo
close
  Mostrar todos os acordes Esconder acordes muito fáceis Esconder acordes fáceis Esconder acordes intermediários
redimensionar
glossário