Cifras e Tablaturas
Engenheiros do Hawaii

Engenheiros do Hawaii

O papa é pop (acustico)

Compositor : (Gessinger)

Cifras Cancelar Versão de Impressão Print

Engenheiros do Hawaii - O papa é pop (acustico)

Tom:

  • 0:00 / 0:00
  			Papa é pop (acústico) 
 
 
 
 
intro 
G--------------------------|-------------------- 
D--------------------------|-------------------- 
A------------5---3--------|-3-3-3h5-3-3-0-- 
E?3-3--------------------|-------------------- 
          
G------------------------------------------------------- 
D------------------------------------------------------ 
A-------------------5-5-5-x-5----3-3-3h5-3-3-0--- 
E3-3-3-x-3------------------------------------------- 
       RIFF 2 
G------------------------------------------------------ 
D------------------------------------------------------ 
A----------5-5-5----3---3-3?0-3-0-3-------------- 
E-3-3-3-------------------------------------------------- 
    RIFF 3 
G------------------------------------------------------- 
D-------------------------------------------------------- 
A-----------------------6?3-3-6---------------------- 
E---2-2-2-2-2/8-8------------------------------------ 
qual quer coisa que se mova é um alvo 
Depois repete uma vez a itro  depois o riff 2 UMA VES eo riff 3 é antes de chegar (qual quer coisa que se mova é um alvo ) 
 
G------------------------------------------------------------------------------------------- 
D------------------------------------------------------------------------------------------- 
A----------------------6-3-3-6------------------------------------------------------------ 
E----2-2-2-2-2/8-8------------------------------------------------------------------------ 
QUAL QUER COISA QUE SE MOVA É UM ALVO E NINGUEM TA SALVO 
 
G------------------------------------------------- 
D------------------------------------------------- 
A?3-2-1---------------------------------------- 
E-------------------------------------------------- 
Um disparo um estouro 
 
G------------------------------- 
D----------------------------- 
A---3H5---3-2-1-------------- 
E----------------------------- 
VARIAÇAO ANTES DO Refrão 
 
G----------------------------------------------------------------------------- 
D---------------------------------------------------------------------------- 
A?7-7-7-7-7-7--------------------3-3-3------5-5-5-------------------- 
E---------------------5-5-5-5-5-5---------------------------7-7-7?7----- 
REFÃO 
 
G---------------------------------- 
D---------------------------------- 
A------------------------------------ 
E-2/8-----2/8------------------------ 
VARIAÇÃO ANTES DO SOLO O SOLO É TOCADO IGAL NO REFÃO 
 
ESCUTE A MUSICA E VERA AS PARTES QUE SÃO TOCADOS OS RIFFS VALEU GALERA QUAL QUER DUVIDA MEU E-MAIL É [email protected] 
 

    	

enviado porenviado por: rednirjam
cifra enviadaCorrigida por: sem correções
logo top cifrasComente
ico música do artistaMúsicas deste artista
ico curtiuCurtiu?
ico destaqueDestaque
Petaxxon Comunicação Online

Cifras.com.br - Melhor e mais completo site de cifras e tablaturas do Brasil Mais de 1 milhão de acordes de músicas cadastradas desde 2003
As informações contidas no nosso site são colaborações de seus usuários e podem conter erros, sendo assim, não nos responsabilizamos sobre nenhuma destas.

close
menos
mais
close
Cor dos acordes:

Cor da letra:

close
Alinhar acordes a direita Alinhar acordes a esquerda Alinhar acordes em baixo Alinhar acordes no topo
close
  Mostrar todos os acordes Esconder acordes muito fáceis Esconder acordes fáceis Esconder acordes intermediários
redimensionar
glossário