Cifras e Tablaturas
Engenheiros do Hawaii

Engenheiros do Hawaii

Ouça o que eu digo, não ouça ninguém

Compositor : (Humberto Gessinger)

Cifras Cancelar Versão de Impressão Print

Engenheiros do Hawaii - Ouça o que eu digo, não ouça ninguém

Tom:

  • 0:00 / 0:00
  			Ouça o que eu digo, não ouça ninguém 
-Intro 
G ---------------------------- 
D ---------------------00-----   2x 
A ---33----33---33------------ 
E -00---00---00-----55-------- 
 
-Tantas pessoas...               Pele morena...  
G -----------------------------|--------------------------------- 
D ----------------------00-----|-------------------------00------ 
A ----33----33-------33----00--|----33----33----33----------00--- 
E -00----00------00------------|-00----00----00-------55--------- 
 
-Vozes à toa... 
G -----------------------------|-------------------- 
D ----------------------00-----|-------------------------00------ 
A ----33----33-------33----00--|----33----33----33--------------- 
E -00----00------00------------|-00----00----00-------55--------- 
 
-O que nos devem... 
G -------------------------------------------- 
D --------------------------------------------   2x 
A -2-2---3-3----2-2----3-3---2-2-------------- 
E ---------------------------------55--0-0---- 
 
-Se te disseram... 
G ------------------------------- 
D ------------------------------- 
A -----/5--------/5----------/5-- 
E -/2--------/2---------/2------- 
 

    	

enviado porenviado por: eduardo_lyvio
cifra enviadaCorrigida por: sem correções
logo top cifrasComente
ico música do artistaMúsicas deste artista
ico curtiuCurtiu?
ico destaqueDestaque
Petaxxon Comunicação Online

Cifras.com.br - Melhor e mais completo site de cifras e tablaturas do Brasil Mais de 1 milhão de acordes de músicas cadastradas desde 2003
As informações contidas no nosso site são colaborações de seus usuários e podem conter erros, sendo assim, não nos responsabilizamos sobre nenhuma destas.

close
menos
mais
close
Cor dos acordes:

Cor da letra:

close
Alinhar acordes a direita Alinhar acordes a esquerda Alinhar acordes em baixo Alinhar acordes no topo
close
  Mostrar todos os acordes Esconder acordes muito fáceis Esconder acordes fáceis Esconder acordes intermediários
redimensionar
glossário