Cifras e Tablaturas
Engenheiros do Hawaii

Engenheiros do Hawaii

Prá Ser Sincero

Ano: 0
Album : Maxximum: Engenheiros do Hawaii
Compositor : (Gessinger / Licks)

Cifras Cancelar Versão de Impressão Print

Engenheiros do Hawaii - Prá Ser Sincero

Tom:

  • 0:00 / 0:00
  			A musica ja esta na ordem que é tocada. 
 
G--------------------------------------------------------------- 
D--------------------------------------------------------------- 
A-----------12/5---------------------12/5-----------------------  
E---5\10-10-------3-5-7-7--3-5-7\10--------3-5-7-7--3-5-7\10---- 
 
G--------------------------------------------------------- 
D--------------------------------------------------------- 
A--------------------------12----12-----------------------  
E---5--7--3-5-7--3-5-7\10-----10----10-10/7--------------- 
 
"Nos dois temos..." 
 
G--------------------------------------------------------- 
D--------------------------------------------------------- 
A-----------------------5-7-9-----------------------------  
E--7-5-7--7-5-7--7-5-3--------0--0------------------------ 
 
 
G--------------------------------------------------------- 
D--------------------------------------------------------- 
A---------------------------------------------------------  
E-10--5-7--3-5--3-5-7--3-5-7\10--------------------------- 
 
G--------------------------------------------------------------- 
D--------------------------------------------------------------- 
A-----------12/5---------------------12/5-----------------------  
E-----------------3-5-7-7--3-5-7\10--------3-5-7-7--3-5-7\10---- 
 
 
G--------------------------------------------------------- 
D------------------------------12--14-14\16--------------- 
A-----------------------10\12-----------------------------  
E--5-7--3-5-7--3-5-7-------------------------------------- 
 
 
G--------------------------------------------------------- 
D-----------------------------------------5-7-7\9--7-5---- 
A----------------2--------------------3\5----------------- 
E--7--7-7--7-3-----5-3-3---7--7-7--7---------------------- 
 
 
G--------------------------------------------------------- 
D--------------------------------------------------------- 
A---------------2-----------------------------------------  
E--7--7-7--7-3----5--3-3---7--7-7--7--5-5----------------- 
 
G--------------------------------------------------------- 
D---2\7\12\17--------------------------------------------- 
A---------------------------------------------------------  
E--------------------------------------------------------- 
 
 

    	

enviado porenviado por: eduardo_lyvio
cifra enviadaCorrigida por: sem correções
logo top cifrasComente
ico música do artistaMúsicas deste artista
ico curtiuCurtiu?
ico destaqueDestaque
Petaxxon Comunicação Online

Cifras.com.br - Melhor e mais completo site de cifras e tablaturas do Brasil Mais de 1 milhão de acordes de músicas cadastradas desde 2003
As informações contidas no nosso site são colaborações de seus usuários e podem conter erros, sendo assim, não nos responsabilizamos sobre nenhuma destas.

close
menos
mais
close
Cor dos acordes:

Cor da letra:

close
Alinhar acordes a direita Alinhar acordes a esquerda Alinhar acordes em baixo Alinhar acordes no topo
close
  Mostrar todos os acordes Esconder acordes muito fáceis Esconder acordes fáceis Esconder acordes intermediários
redimensionar
glossário