Cifras e Tablaturas
Engenheiros do Hawaii

Engenheiros do Hawaii

Refrão de Bolero

Ano: 1991
Album : Maxximum: Engenheiros do Hawaii

Cifras Cancelar Versão de Impressão

Engenheiros do Hawaii - Refrão de Bolero

Tom: Bm

  			Como tocar: 
 
(Obs: Entre logo no começo:) 
Música: 
G|------------------------------------| 
D|------------------------------------| 
A|-2-2------------------0-0-1-1---| 
E|-------2-2-3-3-0-0--------------| 
 
Refrão: 
G|------------------------------------| 
D|------------------------------------| 
A|-----------0-0-2-2---------------| 
E|-3---3-3------------2--2-2-----| 
 
Leandro Calil Duarte 

    	
fixar
fixar inscrever-se

enviado porenviado por: Pantufa
cifra enviadaCorrigida por: sem correções
logo top cifrasComente
ico música do artistaMúsicas deste artista
ico curtiuCurtiu?
ico destaqueDestaque
Petaxxon Comunicação Online

Cifras.com.br - Melhor e mais completo site de cifras e tablaturas do Brasil Mais de 1 milhão de acordes de músicas cadastradas desde 2003
As informações contidas no nosso site são colaborações de seus usuários e podem conter erros, sendo assim, não nos responsabilizamos sobre nenhuma destas.

close
menos
mais
close
Cor dos acordes:

Cor da letra:

close
Alinhar acordes a direita Alinhar acordes a esquerda Alinhar acordes em baixo Alinhar acordes no topo
close
  Mostrar todos os acordes Esconder acordes muito fáceis Esconder acordes fáceis Esconder acordes intermediários
redimensionar
glossário