Cifras e Tablaturas
Engenheiros do Hawaii

Engenheiros do Hawaii

Somos quem podemos ser

Ano: 2005
Album : Maxximum: Engenheiros do Hawaii
Compositor : (Gessinger)

Cifras Cancelar Versão de Impressão Print

Engenheiros do Hawaii - Somos quem podemos ser

Tom:

  • 0:00 / 0:00
  			A musica toda é assim, as vezes ele faz umas variações, coisa boba. 
 
Pode ficar variando estas duas tablaturas. 
 
G--------------------------------------------------------- 
D--------------------------------------------------------- 
A----------------3-3-3\5----------------------------------  
E-3--3-3-3--3-5------------------------------------------- 
 
G--------------------------------------------------------- 
D-5------------------------------------------------------- 
A---5---------3-3-3\5-------------------------------------  
E-----3--3-5---------------------------------------------- 
 
"Somos Quem podemos ser, sonhos que podemos ter..." 
 
G--------------------------------------------------------- 
D--------------------------------------------------------- 
A-0-0-0--2-2-2--0-0-0--2----------------------------------  
E--------------------------------------------------------- 
 
 
Solo 
 
G------------11-11-11-11--------------16-16-16-16---------- 
D------9-12------------------14--17------------------------         2x 
A---10--------------------15-------------------------------  
E---------------------------------------------------------- 
 
G---16-17-19----16-17-19---21/19-------------------------- 
D--------------------------------17----------------------- 
A---------------------------------------------------------  
E--------------------------------------------------------- 
 
G--16-17-19---16-17-19---16-17-21/19--19/17-----17\19---17-16------------------- 
D--------------------------------------------------------------19--17-16-------- 
A------------------------------------------------------------------------19-----  
E------------------------------------------------------------------------------- 
 
G---12-11-9-------------------------------------------------- 
D------------12-10-9--12-10---------------------------------- 
A---------------------------12-10----------------------------  
E------------------------------------------------------------ 
 
Depois do Solo repete a primeira tablatura. 
 
 

    	

enviado porenviado por: eduardo_lyvio
cifra enviadaCorrigida por: sem correções
logo top cifrasComente
ico música do artistaMúsicas deste artista
ico curtiuCurtiu?
ico destaqueDestaque
Petaxxon Comunicação Online

Cifras.com.br - Melhor e mais completo site de cifras e tablaturas do Brasil Mais de 1 milhão de acordes de músicas cadastradas desde 2003
As informações contidas no nosso site são colaborações de seus usuários e podem conter erros, sendo assim, não nos responsabilizamos sobre nenhuma destas.

close
menos
mais
close
Cor dos acordes:

Cor da letra:

close
Alinhar acordes a direita Alinhar acordes a esquerda Alinhar acordes em baixo Alinhar acordes no topo
close
  Mostrar todos os acordes Esconder acordes muito fáceis Esconder acordes fáceis Esconder acordes intermediários
redimensionar
glossário