Cifras e Tablaturas
Evanescence

Evanescence

Bring Me To Life Tablatura de Baixo Verificada

Ano: 2003
Album : Anywhere But Home

Cifras Cancelar Versão de Impressão
cifras

Evanescence - Bring Me To Life

fixar na tela  
Exibindo: vídeo-aula ver clipes redimensionar

Tom:

E

  Estrofe 1 

|----------------------------------------------------------------| 
|----------------------------------------------------------------| 
|------------------------------------------------------7---------| 
|-0-0--0-0--0-0--0-0--0-0-0-0--0-0--0-0--0-0--0---0-0------------| 
|----------------------------------------------------------------| 


|----------------------------------------------------------------| 
|----------------------------------------------------------------| 
|-------------------------------------------------7--------------| 
|-0-0--0-0--0-0--0-0--0-0-0-0--0-0--0-0--0-0--0-----0-8----------| 
|----------------------------------------------------------------| 


|----------------------------------------------------------------| 
|----------------------------------------------------------------| 
|-----------------------------------------------------5h7--------| 
|-0-0--0-0--0-0--0-0--0-0-0-0--0-0--0-0--0-0--0---0-0------------| 
|----------------------------------------------------------------| 


|----------------------------------------------------------------| 
|----------------------------------------------------------------| 
|-----------------------------------------------------3----------| 
|-0-0--0-0--0-0--0-0--0-0-0-0--0-0--0-0--0-0--0-0-3-5------------| 
|----------------------------------------------------------------| 

Refrão 

|----------------------------------------------------------------| 
|------2--------------5------------------------------------------| 
|-------------------------------------5-----5-------7------7-5---| 
|-0--0----0--0---3-3-----3--3----------------------------------7\| 
|------------------------------3-3--3----3-----5--5---5--5-------| 


|----------------------------------------------------------------| 
|------2--------------5------------------------------------------| 
|------------------------------------5-------------7-------7-5---| 
|-0--0---0--0--3-3--3----3--3----------------------------------7\| 
|-------------------------------3--3---3--3---5--5----5--5-------| 

Estrofe 2 = 1  


Refrão 2 

|----------------------------------------------------------------| 
|------2--------------5------------------------------------------| 
|------------------------------------5--------------7------------| 
|-0--0----0--0---3--3----3--3-------------------------------0-2-3| 
|-------------------------------3--3----3--3---5--5---5--5-------| 


|----------------------------------------------------------------| 
|------2--------------5-------5----------------------------------| 
|--------------------------------------5-----------------7-------| 
|-0--0----0--0---3--3----3--3------------------------------------| 
|---------------------------------3--3----3--3--3---5--5---5--5--| 


|----------------------------------------------------------------| 
|----------------------------------------------------------------| 
|-7-5------------------------------------------------------------| 
|-----7\---------------------------------------------------------| 
|----------------------------------------------------------------| 


Bridge 


|----------------------------------------------------------------| 
|----------------------------------------------------------------| 
|---3----------------5--5----------------------------------------| 
|------3-----------------5---------------------------------------| 
|--------1---1-1--1--------3---3-3--3----------------------------| 


|----------------------------------------------------------------| 
|----------------------------------------------------------------| 
|----------------------------------------------------------------| 
|-0-0--0-0--0-0--0-0--0-0-0-0--0-0--0-0--0-0--0---0-0-0-0--------| 
|----------------------------------------------------------------| 


|----------------------------------------------------------------| 
|----------------------------------------------------------------| 
|-3--3-------------5--5------------------------------------------| 
|------3----------------5-----------0-0--0-0--0-0--0-0--0-0-0-0--| 
|--------1--1-1--1--------3--3-3--3------------------------------| 


|----------------------------------------------------------------| 
|-----------------------7-----7-5--------------------------4-----| 
|-------------------5h7-----7------5--3-2-------------2h4--------| 
|-0--2--3--5h7--5-------------------------3-----3-2--------------| 
|---------------------------------------------3------------------| 


|----------------------------------------------------------------| 
|-----------------------7-----7-5---------------------0-2-3-4----| 
|-------------------5h7-----7------5--3-2-----2---2--------------| 
|-0--2--3--5h7--5-------------------------3----------------------| 
|----------------------------------------------------------------| 


Estrofe 3 



|----------------------------------------------------------------| 
|----------------------------------------------------------------| 
|-------------------------------------------------7---5h7--------| 
|-0-0--0-0--0-0--0-0--0-0-0-0--0-0--0-0--0-0--0-----0------------| 
|----------------------------------------------------------------| 
  

|----------------------------------------------------------------| 
|----------------------------------------------------------------| 
|------------------------------------------3h5-3-0-3-2---2-------| 
|-0-0--0-0--0-0--0-0--0-0-0-0--0-0--0-0--0-------------3---------| 
|----------------------------------------------------------------| 


|----------------------------------------------------------------| 
|----------------------------------------------------------------| 
|------------------------------------------------7---5h7---------| 
|-0-0--0-0--0-0--0-0--0-0-0-0--0-0--0-0--0-0--0----0-------------| 
|----------------------------------------------------------------| 


|----------------------------------------------------------------| 
|----------------------------------------------------------------| 
|----------------------3-3-3-3--5-5--5-5--5-3-2------------------| 
|-0-0--0-0--0-0--0-0----------------------------5-3-2---2--------| 
|-----------------------------------------------------3---3------| 


Refrão 3 


|----------------------------------------------------------------| 
|------2--------------5------------------------------------------| 
|------------------------------------5---------------------------| 
|-0--0----0--0---3--3----3--3--------------------------------15\-| 
|-------------------------------3--3----3--3\--------------------| 


|----------------------------------------------------------------| 
|------2--------------5------------------------------------------| 
|------------------------------------5--------------------7-5----| 
|-0--0----0--0---3--3----3--3----------------------7----------7/-| 
|-------------------------------3--3----3-3-3--5-5---5-5---------| 


Final 

|----------------------------------------------------------------| 
|----------------------------------------------------------------| 
|--3--3-0-3-0-3---3-3-0-3-----5----------------------------------| 
|---------------------------------------2-3-5--------------------| 
|---------------------------3----3-1-3---------------------------| 


|----------------------------------------------------------------| 
|----------------------------------2-----------------------------| 
|------------------------------------------7-5-------------------| 
|-0-0--0-0--0-0--0-0--0-0-0-0--0-----0---------7\----------------| 
|----------------------------------------------------------------| 


|----------------------------------------------------------------| 
|-----------5-2--------------------------------------------------| 
|-3--3-0-3------3---3-5---5-5--0-5--0-5---3-2--------------------| 
|-----------------3---------------------------3-2----------------| 
|--------------------------------------------------0-------------| 


  

top 5 | evanescence
top numetal
Outras músicas do artista letras do(a) Evanescence
Top cifras »Top artistas »
Petaxxon Comunicação Online
Cifras.com.br - Melhor e mais completo site de cifras e tablaturas do Brasil
Mais de 1 milhão de acordes de músicas cadastradas desde 2003
As informações contidas no nosso site são colaborações de seus usuários e podem conter erros, sendo assim, não nos responsabilizamos sobre nenhuma destas.
close
menos
mais
close
Cor dos acordes:

Cor da letra:

 

save
close
close
 
redimensionar