Cifras e Tablaturas
Factory 81

Factory 81

Peace Officer (ver. 2)

Cifras Cancelar Versão de Impressão Print

Factory 81 - Peace Officer (ver. 2)

Tom:

  			

the tuning is normal for a 5 string bass

verse/intro
G|----------------------------------------------------
D|----------------------------------------------------
A|-------------------5\9-9----------------------------
E|-------------------------------------------2-1-2----
B|-1-1-1-1--1-1-1-1---------1-1-1-1--1-1-1-1----------

chorus
*not sure on how many times he plays each note but just listen to the changes then u'll know

G|-----------------------------------------------------------------
D|-----------------------------------------------------------------
A|-----------------------------------------------------------------
E|-----------------------------------------------------------------
B|-1-1-1-1-1-1-1-1-2-2-2-2-2-2-2-2-1-1-1-1-1-1-1-1-2-2-2-2-2-2-2-2-

first bridge
*i dont know the ryhtm to this part but its easy to figure out
G|--------------------------------------------------------
D|--------------------------------------------------------
A|--------------------------------------------------------
E|--------------------------------------------------------
B|-1-1-1-1-1-1-1-1---1-1-1-1-1-1-1-1----------------------

after bridge #1 they do the chorus then comes:
bridge #2
G|-------5--------6/8---6------------------
D|----5--------6----------6----------------
A|-3--------4------------------------------
E|-----------------------------------------
B|-----------------------------------------
and thats all. the song is really easy to play just listen with the song and stuff and u'll catch on

    	
fixar
fixar inscrever-se

enviado porenviado por: anônimo
cifra enviadaCorrigida por: sem correções
logo top cifrasComente
ico música do artistaMúsicas deste artista
ico curtiuCurtiu?
ico destaqueDestaque
Petaxxon Comunicação Online

Cifras.com.br - Melhor e mais completo site de cifras e tablaturas do Brasil Mais de 1 milhão de acordes de músicas cadastradas desde 2003
As informações contidas no nosso site são colaborações de seus usuários e podem conter erros, sendo assim, não nos responsabilizamos sobre nenhuma destas.

close
menos
mais
close
Cor dos acordes:

Cor da letra:

close
Alinhar acordes a direita Alinhar acordes a esquerda Alinhar acordes em baixo Alinhar acordes no topo
close
  Mostrar todos os acordes Esconder acordes muito fáceis Esconder acordes fáceis Esconder acordes intermediários
redimensionar
glossário