Cifras e Tablaturas
Faith no More

Faith no More

A Small Victory (ver. 2)

Cifras Cancelar Versão de Impressão Print

Faith no More - A Small Victory (ver. 2)

Tom:

  			

 w     E    s s s e    s s s s s e   E    s s s e    s s s q  5x
---r-||------------------------------|--------------------------||
4:-e-||*-7~~~-------7~~~-------7-7---|-7~~~-------7~~~-------4-*||
4:-s-||*------0-0-0------0-0-0-----0-|------0-0-0------0-0-0---*||
---t-||------------------------------|-----------------------2--||
       1st Verse

  E    s e E    s e s s e   E    s e E    s e e e   w  +w   w   h  Q e
|-------------------------|-----------------------|---|---|---|--------|
|-7~~~-----7~~~-----7-7---|-7~~~-----7~~~---------|-9-|-9-|-7-|-11\7/9-|
|------0-0------0-0-----0-|------0-0------0-0-----|-7-|-7-|-5-|-9-\5---|
|-------------------------|-------------------2-5-|-0-|-0-|---|--------|

    E    s s s e    s s s s s e   E    s s s e    s s s q  5x
||------------------------------|--------------------------||
||*-7~~~-------7~~~-------7-7---|-7~~~-------7~~~-------4-*||
||*------0-0-0------0-0-0-----0-|------0-0-0------0-0-0---*||
||------------------------------|-----------------------2--||
  2nd Verse

  E    s e E    s e s s e   E    s e E    s e e e   w  +w   w   h  Q e
|-------------------------|-----------------------|---|---|---|--------|
|-7~~~-----7~~~-----7-7---|-7~~~-----7~~~---------|-9-|-9-|-7-|-11\7---|
|------0-0------0-0-----0-|------0-0------0-0-----|-7-|-7-|-5-|-9-\5-0-|
|-------------------------|-------------------2-5-|-0-|-0-|---|--------|

    s e s s s e s e s s s s   s e s s s e e e e e   s e s s s e s e s s s e
||--------------------------|---------------------|-------------------------|
||*-------------------------|---------------------|-------------------------|
||*-------------------------|---------------------|-------------------------|
||--5-5-5-5-5-3-5-5-5-5-5-3-|-5-5-5-5-5-3-5-3-5\2-|-5-5-5-5-5-3-5-5-5-5-5-3-|
    Chorus

  s e s s s e e e e s s   s s s s s s s s s s s s e s s
|-----------------------|-----r---r---r---r-------------|
|-----------------------|-----e---e---e---e-------------|
|-------------------5/6-|-7---s---s---s---s---------5-7-|
|-5-5-5-5-5-3-5-3-5-----|---0-t-0-t-0-t-0-t-0-3p0-5-----|

  s s s s s s s s s s s s e s s   s s s s s s s s s s s s e    e
|-----r---r---r---r-------------|-----r---r---r---r-----------------|
|-----e---e---e---e-------------|-----e---e---e---e-----------------|
|-7---s---s---s---s---------5-6-|-7---s---s---s---s-----------------|
|---0-t-0-t-0-t-0-t-0-3p0-5-----|---0-t-0-t-0-t-0-t-0-3p0-5~~~-5~~~-|

    E    s s s e    s s s s s e   E    s s s e    s s s q  5x
||------------------------------|--------------------------||
||*-7~~~-------7~~~-------7-7---|-7~~~-------7~~~-------4-*||
||*------0-0-0------0-0-0-----0-|------0-0-0------0-0-0---*||
||------------------------------|-----------------------2--||
  3rd Verse

  E    s e E    s e s s e   E    s e E    s e e e   w  +w   w   h  Q e
|-------------------------|-----------------------|---|---|---|--------|
|-7~~~-----7~~~-----7-7---|-7~~~-----7~~~---------|-9-|-9-|-7-|-11\7-7-|
|------0-0------0-0-----0-|------0-0------0-0-----|-7-|-7-|-5-|-9-\5---|
|-------------------------|-------------------2-5-|-0-|-0-|---|--------|

    s e s s s e s e s s s s   s e s s s e e e e e   s e s s s e s e s s s s
||--------------------------|---------------------|-------------------------|
||*-------------------------|---------------------|-------------------------|
||*-------------------------|---------------------|-------------------------|
||--5-5-5-5-5-3-5-5-5-5-5-3-|-5-5-5-5-5-3-5-3-5\2-|-5-5-5-5-5-3-5-5-5-5-5-3-|
  Chorus

  s e s s s e e e e s s     s s s s s s s s s s s s e s s  3x
|-----------------------||------r---r---r---r--------------||
|-----------------------||*-----e---e---e---e-------------*||
|-------------------5/6-||*-7---s---s---s---s---------5-6-*||
|-5-5-5-5-5-3-5-3-5-----||----0-t-0-t-0-t-0-t-0-3p0-5------||
                          Guitar Solo

  s s s s s s s s s s s s s s s s   s s s s s s s s s s s s s s s s
|-----r---r---r---r---------------|-----r---r---r---r---------------|
|-----e---e---e---e-----------5-6-|-7---e---e---e---e-----------5-6-|
|-7---s---s---s---s---------------|---0-s-0-s-0-s-0-s-0-3p0-5-0-----|
|---0-t-0-t-0-t-0-t-0-3p0-5h6-----|-----t---t---t---t---------------|

  s s s s s s s s s s s s e s s   s s s s s s s s s s s s E s
|-----r---r---r---r-------------|-----r---r---r---r-----------|
|-7---e---e---e---e---------5-6-|-7---e---e---e---e-----------|
|---0-s-0-s-0-s-0-s-0-3p0-5-----|---0-s-0-s-0-s-0-s-0-3p0-5-6-|
|-----t---t---t---t-------------|-----t---t---t---t-----------|

    s s s s s s s s s s s s e s s  3x s s s s s s s s s s s s s s
||---------------------------------||-------------------------7-9-|
||*-------------------------------*||-------------------------7-9-|
||*-7/8\7-------7/8\7-------7-----*||-7/8\7-------7/8\7-------5-7-|
||--------0-0-0-------0-0-0---0-0--||-------0-0-0-------0-0-0-----|

    s s s s s s s s s s s s e s s  4x s e s s s e s e s s s e
||---------------------------------||-------------------------|
||*-------------------------------*||-------------------------|
||*-7/8\7-------7/8\7-------7-----*||-----------------------5-|
||--------0-0-0-------0-0-0---0-0--||-5-5-5-5-5-3-5-5-5-5-5---|

  s e s s s e e e e e   s e s s s e s e s s s e   s e s s s e e e e s s
|---------------------|-------------------------|-----------------------|
|---------------------|-------------------------|-----------------------|
|---------------------|-----------5-----------5-|-----------5-------5-6-|
|-5-5-5-5-5-3-5-3-5\2-|-5-5-5-5-5---5-5-5-5-5---|-5-5-5-5-5---5-3-5-----|

    s s s s s s s s s s s s e s s  4x s e s s s e s e s s s e              
||------r---r---r---r--------------||-------------------------|
||*-----e---e---e---e-------------*||-------------------------|
||*-7---s---s---s---s---------5-6-*||-----------------------5-|
||----0-t-0-t-0-t-0-t-0-3p0-5------||-5-5-5-5-5-3-5-5-5-5-5---|

  s e s s s e e e e e   s e s s s e s e s s s e   s e s s s e e e e s s
|---------------------|-------------------------|-----------------------|
|---------------------|-------------------------|-----------------------|
|---------------------|-----------5-----------5-|-----------5-------5-6-|
|-5-5-5-5-5-3-5-3-5\2-|-5-5-5-5-5---5-5-5-5-5---|-5-5-5-5-5---5-3-5-----|

    s s s s s s s s s s s s e s s  3x s s s s s s s E e e e   w
||------r---r---r---r--------------||-----r---r---r---------|----|
||*-----e---e---e---e-------------*||-----e---e---e-----7-9-|/11-|
||*-7---s---s---s---s---------5-6-*||-7---s---s---s-7-9-----|----|
||----0-t-0-t-0-t-0-t-0-3p0-5------||---0-t-0-t-0-t---------|----|

 +Q  e e e e e    Q s s h  +Q e e e e e   H  s E   +Q  e e e e e    Q h e
|---------------|---------|-------------|---------|---------------|-------|
|-11-----7-9-11-|-9-7/9\7-|-7-7-----7-9-|/11---11-|-11\----7-9/11-|-9-7---|
|----7-9--------|---------|-----7-9-----|----9----|----7-9--------|-----9-|
|---------------|---------|-------------|---------|---------------|-------|

 +q e q e e e     E    s s s e    s s s s s e   E    s s s e    s s s q  3x
|-------------||------------------------------|--------------------------||
|---7---------||*-7~~~-------7~~~-------7-7---|-7~~~-------7~~~-------4-*||
|-9---7-9\4/7-||*------0-0-0------0-0-0-----0-|------0-0-0------0-0-0---*||
|-------------||------------------------------|-----------------------2--||

  E    s H   w   w   w
|--------r-|-r-|-r-|-r-||
|-7~~~---e-|-e-|-e-|-e-||
|------0-s-|-s-|-s-|-s-||
|--------t-|-t-|-t-|-t-||

    	
fixar
fixar inscrever-se

enviado porenviado por: anônimo
cifra enviadaCorrigida por: sem correções
logo top cifrasComente
ico música do artistaMúsicas deste artista
ico curtiuCurtiu?
ico destaqueDestaque
Petaxxon Comunicação Online

Cifras.com.br - Melhor e mais completo site de cifras e tablaturas do Brasil Mais de 1 milhão de acordes de músicas cadastradas desde 2003
As informações contidas no nosso site são colaborações de seus usuários e podem conter erros, sendo assim, não nos responsabilizamos sobre nenhuma destas.

close
menos
mais
close
Cor dos acordes:

Cor da letra:

close
Alinhar acordes a direita Alinhar acordes a esquerda Alinhar acordes em baixo Alinhar acordes no topo
close
  Mostrar todos os acordes Esconder acordes muito fáceis Esconder acordes fáceis Esconder acordes intermediários
redimensionar
glossário