Cifras e Tablaturas
Faith no More

Faith no More

Be Aggressive

Ano: 1992
Album : This Is It: The Best of Faith No More

Cifras Cancelar Versão de Impressão Print

Faith no More - Be Aggressive

Tom:

  			

       w  3x H q   w  +w   w  +H    q     s s e s s e s s e s s e
---||--r--||-r---|---|---|---|--------||--------------------------|
4:-||*-e-*||-e---|---|---|---|------8\||*-------------------------|
4:-||*-s-*||-s-7-|---|---|-6-|-6~~~---||*-------------------------|
---||--t--||-t---|-0-|-0-|---|--------||--x-x-0-x-x-0-x-x-0-x-x-0-|

  s s e s s e s s e s s e   s s e s s e s s e s s e
|-------------------------|-------------------------|
|-------------------------|-------------------------|
|-------------------------|-------------------------|
|-x-x-0-x-x-0-x-x-0-x-x-0-|-x-x-0-x-x-0-x-x-0-x-x-0-|

  s s e s s e s s s s s s e  2x  s s e s s e s s e s s e
|----------------------------||--------------------------|
|---------------------------*||*-------------------------|
|-------------------------5-*||*-------------------------|
|-x-x-0-x-x-0-x-x-0-0-x-x----||--x-x-0-x-x-0-x-x-0-x-x-0-|
                               1st Verse

  s s e s s e s s e s s e   s s e s s e s s e s s e
|-------------------------|-------------------------|
|-------------------------|-------------------------|
|-------------------------|-------------------------|
|-x-x-0-x-x-0-x-x-0-x-x-0-|-x-x-0-x-x-0-x-x-0-x-x-0-|

  s s e s s e s s s s s s e  2x e s s e s s e s s s e s  
|----------------------------||-------------------------|
|---------------------------*||-------------------------|
|-------------------------5-*||-7-x-x-x-x-x-x-x-x-x-4-5-|
|-x-x-0-x-x-0-x-x-0-0-x-x----||-------------------------|
                               Chrous

 +e s s e s s e s s s e s  +e s s e s s e s s s e s
|-------------------------|-------------------------|
|-------------------------|-------------------------|
|-5-x-x-x-x-x-x-x-x-x-5-7-|-7-x-x-x-x-x-x-x-x-x-4-5-|
|-------------------------|-------------------------|

 +e s s e s s s s s s s s s s  +e s s e s s e s s s e s
|-----------------r---r---r---|-------------------------|
|-----------------e---e---e---|-------------------------|
|-5-x-x-x-x-x-x-4-s-5-s-6-s-7-|-7-x-x-x-x-x-x-x-x-x-4-5-|
|-----------------t---t---t---|-------------------------|

 +e s s e s s e s s s e s  +e s s e s s e s s s e s  +e s s e s s e e e e
|-------------------------|-------------------------|---------------------|
|-------------------------|-------------------------|---------------------|
|-5-x-x-x-x-x-x-x-x-x-5-7-|-7-x-x-x-x-x-x-x-x-x-4-5-|-5-x-x-x-x-x-x-4-5-6-|
|-------------------------|-------------------------|---------------------|

    s s e s s e s s e s s e   s s e s s e s s e s s e   s s e s s e s s e s s e
||--------------------------|-------------------------|-------------------------|
||*-------------------------|-------------------------|-------------------------|
||*-7\----------------------|-------------------------|-------------------------|
||----x-0-x-x-0-x-x-0-x-x-0-|-x-x-0-x-x-0-x-x-0-x-x-0-|-x-x-0-x-x-0-x-x-0-x-x-0-|
  2nd Verse

  s s e s s e s s s s s s e  2x e s s e s s e s s s e s
|----------------------------||-------------------------|
|---------------------------*||-------------------------|
|-------------------------5-*||-7-x-x-x-x-x-x-x-x-x-4-5-|
|-x-x-0-x-x-0-x-x-0-0-x-x----||-------------------------|
                               Chorus

 +e s s e s s e s s s e s  +e s s e s s e s s s e s
|-------------------------|-------------------------|
|-------------------------|-------------------------|
|-5-x-x-x-x-x-x-x-x-x-5-7-|-7-x-x-x-x-x-x-x-x-x-4-5-|
|-------------------------|-------------------------|

 +e s s e s s s s s s s s s s  +e s s e s s e s s s e s
|-----------------r---r---r---|-------------------------|
|-----------------e---e---e---|-------------------------|
|-5-x-x-x-x-x-x-4-s-5-s-6-s-7-|-7-x-x-x-x-x-x-x-x-x-4-5-|
|-----------------t---t---t---|-------------------------|

 +e s s e s s e s s s e s  +e s s e s s e s s s e s  +e s s e s s e e e e
|-------------------------|-------------------------|---------------------|
|-------------------------|-------------------------|---------------------|
|-5-x-x-x-x-x-x-x-x-x-5-7-|-7-x-x-x-x-x-x-x-x-x-4-5-|-5-x-x-x-x-x-x-4-5-6-|
|-------------------------|-------------------------|---------------------|

    e e e e e e e e  4x w  +w   w  +w   w  +w   w  +h+e e  q
||-------------------||---|---|---|---|---|---|---|-----------|
||*-----------------*||---|---|---|---|---|---|---|-----------|
||*-7-4-5-6-7-4-5-6-*||---|---|-6-|-6-|---|---|-6-|-6-6/13/13\|
||-------------------||-0-|-0-|---|---|-0-|-0-|---|-----------|
                       Interlude

    e q s s e e q  16xq q q q    s s e s s e s s e s s e
||-----------------||---r-r----|-------------------------|
||*---------------*||---e-e----|-------------------------|
||*---------------*||---s-s-12\|-------------------------|
||--3-0-0-0-0-0-5--||-3-t-t----|-x-x-0-x-x-0-x-x-0-x-x-0-|
  Guitar Solo

 s s e s s e s s e s s e   s s e s s e s s e s s e   s s e s s e s s s s s s e
|------------------------|-------------------------|---------------------------|
|------------------------|-------------------------|---------------------------|
|------------------------|-------------------------|-------------------------5-|
|x-x-0-x-x-0-x-x-0-x-x-0-|-x-x-0-x-x-0-x-x-0-x-x-0-|-x-x-0-x-x-0-x-x-0-0-x-x---|

    s s e s s e s s e s s e   s s e s s e s s e s s e   s s e s s e s s e s s e
||--------------------------|-------------------------|-------------------------|
||*-------------------------|-------------------------|-------------------------|
||*-------------------------|-------------------------|-------------------------|
||--x-x-0-x-x-0-x-x-0-x-x-0-|-x-x-0-x-x-0-x-x-0-x-x-0-|-x-x-0-x-x-0-x-x-0-x-x-0-|
  3rd Verse

  s s e s s e s s s s s s e  2x  s s e s s e s s e s s e
|----------------------------||--------------------------|
|---------------------------*||*-------------------------|
|-------------------------5-*||*-------------------------|
|-x-x-0-x-x-0-x-x-0-0-x-x----||--x-x-0-x-x-0-x-x-0-x-x-0-|

  s s e s s e s s e s s e   s s e s s e s s e s s e
|-------------------------|-------------------------|
|-------------------------|-------------------------|
|-------------------------|-------------------------|
|-x-x-0-x-x-0-x-x-0-x-x-0-|-x-x-0-x-x-0-x-x-0-x-x-0-|

  s s e s s e s s s s s s e  2x e s s e s s e s s s e s
|----------------------------||-------------------------|
|---------------------------*||-------------------------|
|-------------------------5-*||-7-x-x-x-x-x-x-x-x-x-4-5-|
|-x-x-0-x-x-0-x-x-0-0-x-x----||-------------------------|

  +e s s e s s e s s s e s  +e s s e s s e s s s e s
|-------------------------|-------------------------|
|-------------------------|-------------------------|
|-5-x-x-x-x-x-x-x-x-x-5-7-|-7-x-x-x-x-x-x-x-x-x-4-5-|
|-------------------------|-------------------------|

 +e s s e s s s s s s s s s s  +e s s e s s e s s s e s
|-----------------r---r---r---|-------------------------|
|-----------------e---e---e---|-------------------------|
|-5-x-x-x-x-x-x-4-s-5-s-6-s-7-|-7-x-x-x-x-x-x-x-x-x-4-5-|
|-----------------t---t---t---|-------------------------|

 +e s s e s s e s s s e s  +e s s e s s e s s s e s  +e s s e s s e e e e
|-------------------------|-------------------------|---------------------|
|-------------------------|-------------------------|---------------------|
|-5-x-x-x-x-x-x-x-x-x-5-7-|-7-x-x-x-x-x-x-x-x-x-4-5-|-5-x-x-x-x-x-x-4-5-6-|
|-------------------------|-------------------------|---------------------|

    e e e e e e e e  4x  e e e e e e e e  4x w
||-------------------||-------------------||---||
||*-----------------*||*-----------------*||---||
||*-7-4-5-6-7-4-5-6-*||*-7-4-5-6-7-4-5-6-*||---||
||-------------------||-------------------||-0-||
                                            hold

    	
fixar
fixar inscrever-se

enviado porenviado por: anônimo
cifra enviadaCorrigida por: sem correções
logo top cifrasComente
ico música do artistaMúsicas deste artista
ico curtiuCurtiu?
ico destaqueDestaque
Petaxxon Comunicação Online

Cifras.com.br - Melhor e mais completo site de cifras e tablaturas do Brasil Mais de 1 milhão de acordes de músicas cadastradas desde 2003
As informações contidas no nosso site são colaborações de seus usuários e podem conter erros, sendo assim, não nos responsabilizamos sobre nenhuma destas.

close
menos
mais
close
Cor dos acordes:

Cor da letra:

close
Alinhar acordes a direita Alinhar acordes a esquerda Alinhar acordes em baixo Alinhar acordes no topo
close
  Mostrar todos os acordes Esconder acordes muito fáceis Esconder acordes fáceis Esconder acordes intermediários
redimensionar
glossário