Cifras e Tablaturas
Faith no More

Faith no More

Crack Hitler (ver. 2)

Cifras Cancelar Versão de Impressão Print

Faith no More - Crack Hitler (ver. 2)

Tom:

  			

       w   w  4x  e e h E s   e e h E s   e e h E s   e e H  3x e e h E s
---||--r-|-r--||------r-r---|-----r-r---|-----r-r---|-----r--||-----r-r---|
4:-||*-e-|-e-*||*-----e-e---|-----e-e---|-----e-e---|-----e-*||-----e-e---|
4:-||*-s-|-s-*||*-----s-s---|-----s-s---|-----s-s---|-----s-*||-----s-s---|
---||--t-|-t--||--0-0-t-t-0-|-0-0-t-t-0-|-0-0-t-t-0-|-0-0-t--||-0-0-t-t-0-|
 Intro (fade in)
                                        p   p   p           p   p   p
  e e H   e e h E s   e e h q     e e e e e e e e s   e e e e e e e e  8x
|-----r-|-----r-r---|-----r---||--------9---9---9---|-------9---9---9--||
|-----e-|-----e-e---|-----e---||*-------------------|-----------------*||
|-----s-|-----s-s---|-----s-9\||*-s-s-s---s---s---s-|-s-s-s---s---s---*||
|-0-0-t-|-0-0-t-t-0-|-0-0-t---||--0-0/7--/7--/7---0-|-0-0/7--/7--/7----||
                                1st Verse                      

  e e e s s s s e e s s   s s e e s s s s e q   e e e s e s e e s s
|-----r-----------r-----|-------r-------------|-----r---------r-----|
|-----e-----------e-----|-------e-------------|-----e---------e-----|
|-----s-----------s-----|-------s-------------|-----s---------s-----|
|-2-2-t-x-x-2-2-2-t-x-x-|-2-2-2-t-x-x-2-2-2-0-|-2-2-t-x-2-2-2-t-x-2-|
 Chorus

 +s s e e s e s s s q   e e e s s s s e e s s   s s s s s s s s s s e q
|-------r-------------|-----r-----------r-----|-------------------------|
|-------e-------------|-----e-----------e-----|-------------------------|
|-------s-----------9\|-----s-----------s-----|-------------------------|
|-2-2-2-t-x-2-2-2-2---|-2-2-t-x-x-2-2-2-t-x-x-|-2-2-2-2-2-2-2-2-2-2-2-0-|

                                                        p   p   p
  e e e s e s e e s s  +s s e e s e s s s e e     e e e e e e e e s
|-----r---------r-----|-------r---------------||--------9---9---9---|
|-----e---------e-----|-------e---------------||*-------------------|
|-----s---------s-----|-------s---------------||*-s-s-s---s---s---s-|
|-2-2-t-x-2-2-2-t-x-2-|-2-2-2-t-x-2-2-2-2-2-2-||--0-0/7--/7--/7---0-|
                                                2nd Verse
        p   p   p
  e e e e e e e e  4x e e e s s s s e e s s   s s e e s s s s e q
|-------9---9---9--||-----r-----------r-----|-------r-------------|
|-----------------*||-----e-----------e-----|-------e-------------|
|-s-s-s---s---s---*||-----s-----------s-----|-------s-------------|
|-0-0/7--/7--/7----||-2-2-t-x-x-2-2-2-t-x-x-|-2-2-2-t-x-x-2-2-2-0-|
    2nd Verse        Chorus                         

  e e e s e s e e s s  +s s e e s e s s s q   e e e s s s s e e s s
|-----r---------r-----|-------r-------------|-----r-----------r-----|
|-----e---------e-----|-------e-------------|-----e-----------e-----|
|-----s---------s-----|-------s-----------9\|-----s-----------s-----|
|-2-2-t-x-2-2-2-t-x-2-|-2-2-2-t-x-2-2-2-2---|-2-2-t-x-x-2-2-2-t-x-x-|

  s s s s s s s s s s e q   e e e s e s e e s s  +s s e e s e s s s e e
|-------------------------|-----r---------r-----|-------r---------------|
|-------------------------|-----e---------e-----|-------e---------------|
|-------------------------|-----s---------s-----|-------s---------------|
|-2-2-2-2-2-2-2-2-2-2-2-0-|-2-2-t-x-2-2-2-t-x-2-|-2-2-2-t-x-2-2-2-2-2-2-|

                                                            p   p   p
         W  +H Q Q  2x W  +H Q Q   W  +H Q Q          e e e e e e e e s
-----||----|--------||---|-------|---|-------|----||--------9---9---9---|
-12:-||*---|-------*||---|-------|---|-------|-4:-||*-------------------|
-8-:-||*---|-------*||---|-------|---|---5-5-|-4:-||*-s-s-s---s---s---s-|
-----||--7-|-7-5-5--||-8-|-8-5-5-|-8-|-8-----|----||--0-0/7--/7--/7---0-|
                                                    3rd Verse
        p   p   p
  e e e e e e e e  4x e e e s s s s e e s s   s s e e s s s s e q
|-------9---9---9--||-----r-----------r-----|-------r-------------|
|-----------------*||-----e-----------e-----|-------e-------------|
|-s-s-s---s---s---*||-----s-----------s-----|-------s-------------|
|-0-0/7--/7--/7----||-2-2-t-x-x-2-2-2-t-x-x-|-2-2-2-t-x-x-2-2-2-0-|
                     Chorus                         

  e e e s e s e e s s   s s e e s e s s s q   e e e s s s s e e s s
|-----r---------r-----|-------r-------------|-----r-----------r-----|
|-----e---------e-----|-------e-------------|-----e-----------e-----|
|-----s---------s-----|-------s-----------9\|-----s-----------s-----|
|-2-2-t-x-2-2-2-t-x-2-|-2-2-2-t-x-2-2-2-2---|-2-2-t-x-x-2-2-2-t-x-x-|

  s s s s s s s s s s e q   e e e s e s e e s s   s s e e s e s s s e e
|-------------------------|-----r---------r-----|-------r---------------|
|-------------------------|-----e---------e-----|-------e---------------|
|-------------------------|-----s---------s-----|-------s---------------|
|-2-2-2-2-2-2-2-2-2-2-2-0-|-2-2-t-x-2-2-2-t-x-2-|-2-2-2-t-x-2-2-2-2-2-2-|

         W  +H Q Q  2x W  +H Q Q   W  +H Q Q     W  +H Q Q  2x W  +H Q Q
-----||----|--------||---|-------|---|-------||----|--------||---|-------|
-12:-||*---|-------*||---|-------|---|-------||*---|-------*||---|-------|
-8-:-||*---|-------*||---|-------|---|---5-5-||*---|-------*||---|-------|
-----||--7-|-7-5-5--||-8-|-8-5-5-|-8-|-8-----||--7-|-7-5-5--||-8-|-8-5-5-|

  W  +H Q Q          e e h E s   e e h E s   e e h E s   e e H  3x
|---|-------|----||------r-r---|-----r-r---|-----r-r---|-----r--||
|---|-------|-4:-||*-----e-e---|-----e-e---|-----e-e---|-----e-*||
|---|---5-5-|-4:-||*-----s-s---|-----s-s---|-----s-s---|-----s-*||
|-8-|-8-----|----||--0-0-t-t-0-|-0-0-t-t-0-|-0-0-t-t-0-|-0-0-t--||

  e e s s e+q+E s   e e h E s   e e h E s   e e Q  e q
|---------7-7-7---|-----r-r---|-----r-r---|------------|
|-----7h9---------|-----e-e---|-----e-e---|------------|
|-----------------|-----s-s---|-----s-s---|-----10\7-7\|
|-0-0-----------0-|-0-0-t-t-0-|-0-0-t-t-0-|-0-0--------|

          p   p   p           p   p   p
    e e e e e e e e s   e e e e e e e e  8x s s e e s s e Q
||--------9---9---9---|-------9---9---9--||-------r-------r-||
||*-------------------|-----------------*||-------e-------e-||
||*-s-s-s---s---s---s-|-s-s-s---s---s---*||-7-7-7-s-7-7-7-s-||
||--0-0/7--/7--/7---0-|-0-0/7--/7--/7----||-------t-------t-||
  Outro

    	
fixar
fixar inscrever-se

enviado porenviado por: anônimo
cifra enviadaCorrigida por: sem correções
logo top cifrasComente
ico música do artistaMúsicas deste artista
ico curtiuCurtiu?
ico destaqueDestaque
Petaxxon Comunicação Online

Cifras.com.br - Melhor e mais completo site de cifras e tablaturas do Brasil Mais de 1 milhão de acordes de músicas cadastradas desde 2003
As informações contidas no nosso site são colaborações de seus usuários e podem conter erros, sendo assim, não nos responsabilizamos sobre nenhuma destas.

close
menos
mais
close
Cor dos acordes:

Cor da letra:

close
Alinhar acordes a direita Alinhar acordes a esquerda Alinhar acordes em baixo Alinhar acordes no topo
close
  Mostrar todos os acordes Esconder acordes muito fáceis Esconder acordes fáceis Esconder acordes intermediários
redimensionar
glossário