Cifras e Tablaturas
Faith no More

Faith no More

Kindergartion

Cifras Cancelar Versão de Impressão Print

Faith no More - Kindergartion

Tom:

  			

       Q e+h  +w  4x Q e+h  +w   Q e+h  +w   Q e+h  +e e  e  s  s +q  q
---||--------|----||-------|---|-------|---|-------|---------------------|
4:-||*-------|---*||-------|---|-------|---|-------|---------17-15-15----|
4:-||*-2-0-0-|-0-*||-2-0-0-|-0-|-2-0-0-|-0-|-2-0-0-|-0-14-17----------17\|
---||--------|----||-------|---|-------|---|-------|---------------------|
     Intro           1st Verse

  Q e+h  +q s s s s s s s s q    e s s s s E s s s e s s  
|-------|----------------------|-------------------------|
|-------|----------------------|-------------------------|
|-2-0-0-|-0-0-0-0-0-0-0-0-0-12\|-2-2-2-2-2-0-0-0-0-0-0-0-|
|-------|----------------------|-------------------------|
                                 Chorus

  E e s E s s s e e   e s s s s S s s s e s s   E e s E s s s e e            
|-------------------|-------------------------|-------------------|
|-2-2-2-------------|-------------------------|-4-4-4-------------|
|-------0-0-0-0---0-|-2-2-2-2-2-0-0-0-0-0-0-0-|-------0-0-0-0---0-|
|---------------2---|-------------------------|---------------2---|
                                                                           

  e s s s s E s s s e s s   E e s E s s s e e   e s s s s S s s s e s s
|-------------------------|-------------------|-------------------------|
|-------------------------|-2-2-2-------------|-------------------------|
|-2-2-2-2-2-0-0-0-0-0-0-0-|-------0-0-0-0---0-|-2-2-2-2-2-0-0-0-0-0-0-0-|
|-------------------------|---------------2---|-------------------------|

  E E e+h   Q e+h  +w   Q e+h   q e  e  t  t  t  t  t  t  E  e    Q e+h  
|---------|-------|---|-------|---------------------------------|-------|
|---------|-------|---|-------|--/12-11-11h12-11h12-11h12-14-16\|-------|
|-----0-0-|-2-0-0-|-0-|-2-0-0-|-0-------------------------------|-2-0-0-|
|-2-2-----|-------|---|-------|---------------------------------|-------|
           2nd Verse

 +e e  e  s  s +q  q    Q e+h  +q s s s s s s s s q    e s s s s E s s s e s s  
|---------------------|-------|----------------------|-------------------------|
|---------17-15-15----|-------|----------------------|-------------------------|
|-0-14-17----------17\|-2-0-0-|-0-0-0-0-0-0-0-0-0-12\|-2-2-2-2-2-0-0-0-0-0-0-0-|
|---------------------|-------|----------------------|-------------------------|
                                 Chorus

  E e s E s s s e e   e s s s s S s s s e s s   E e s E s s s e e            
|-------------------|-------------------------|-------------------|
|-2-2-2-------------|-------------------------|-4-4-4-------------|
|-------0-0-0-0---0-|-2-2-2-2-2-0-0-0-0-0-0-0-|-------0-0-0-0---0-|
|---------------2---|-------------------------|---------------2---|
                                                                           

  e s s s s E s s s e s s   E e s E s s s e e   e s s s s S s s s e s s
|-------------------------|-------------------|-------------------------|
|-------------------------|-2-2-2-------------|-------------------------|
|-2-2-2-2-2-0-0-0-0-0-0-0-|-------0-0-0-0---0-|-2-2-2-2-2-0-0-0-0-0-0-0-|
|-------------------------|---------------2---|-------------------------|

  E E e+h     e s s s s s s e s s s s s s   e s s s s s s e s s s s s s  3x
|---------||----r-------------r-----------|---r-------------p------------||
|---------||*---e-------------e-----------|---e-------------4-----------*||
|-----0-0-||*-2-s---0-2-2-0-2-s---0-2-2-0-|-2-s---0-2-2-0-2-----0-2-2-0-*||
|-2-2-----||----t-2-----------t-2---------|---t-2-------------2----------||
            Interlude

  e s s s s s s e s s s s s s   e s s s s s s s s s s s s e
|---r-------------r-----------|---r-------------------------|
|---e-------------e-----------|---e-------------------------|
|-2-s---0-2-2-0-2-s---0-2-2-0-|-2-s---0-2-2-0---------5-4-3-|
|---t-2-----------t-2---------|---t-2---------5-4-3-2-------|

    e s s s s s s e s s s s s s   e s s s s s s e s s s s s s  3x
||----r-------------r-----------|---r-------------p------------||
||*---e-------------e-----------|---e-------------4-----------*||
||*-2-s---0-2-2-0-2-s---0-2-2-0-|-2-s---0-2-2-0-2-----0-2-2-0-*||
||----t-2-----------t-2---------|---t-2-------------2----------||

  e s s s s s s e e s s s s s   e s s s s s s s s s s s s e
|---r-------------p-----------|---r-------------------------|
|---e-------------4-----------|---e-------------------------|
|-2-s---0-2-2-0-2-----0-2-2-0-|-2-s---0-2-2-0---------5-4-3-|
|---t-2-------------2---------|---t-2---------5-4-3-2-------|

    q q e s s +s +s s   E s+H  +Q q q s s   s s  e H   +Q  s s s s+q s s
|---r-r---------------|-------|-----------|-----------|--------7-6-6-----|
|---e-e---7-9^(9)^9-7-|-9-9-9-|-9-9-7-----|-----------|------7-------9-7-|
|-2-s-s-9-------------|-------|-------9-7-|-9-12-8-8^-|(8)-9-------------|
|---t-t---------------|-------|-----------|-----------|------------------|
 Bass Solo    (1)                                   (1/2)

  E s+H    e  e  e  e  e  Q       Q  h  e    H         +q  
|-------|-/x\-------------------|----16----|-18^--------18\|
|-9-9-9-|-/x\/12\11/14\12/16~~~-|-15----16-|---------------|
|-------|-/x\-------------------|----------|---------------|
|-------|-/x\-------------------|----------|---------------|
                                            (1/2 gradually)

  Q e+h  +w   Q e+h  +w   Q e+h  +e e  e  s  s +q  q    Q e+h
|-------|---|-------|---|-------|---------------------|-------|
|-------|---|-------|---|-------|---------17-15-15----|-------|
|-2-0-0-|-0-|-2-0-0-|-0-|-2-0-0-|-0-14-17----------17\|-2-0-0-|
|-------|---|-------|---|-------|---------------------|-------|
 3rd Verse

 +q s s s s s s s s q    e s s s s E s s s e s s   E e s E s s s e e
|----------------------|-------------------------|-------------------|
|----------------------|-------------------------|-2-2-2-------------|
|-0-0-0-0-0-0-0-0-0-12\|-2-2-2-2-2-0-0-0-0-0-0-0-|-------0-0-0-0---0-|
|----------------------|-------------------------|---------------2---|
                         Chorus

  e s s s s S s s s e s s   E e s E s s s e e   e s s s s E s s s e s s 
|-------------------------|-------------------|-------------------------|
|-------------------------|-4-4-4-------------|-------------------------|
|-2-2-2-2-2-0-0-0-0-0-0-0-|-------0-0-0-0---0-|-2-2-2-2-2-0-0-0-0-0-0-0-|
|-------------------------|---------------2---|-------------------------|

  E e s E s s s e e   e s s s s S s s s e s s   E E e+h
|-------------------|-------------------------|---------|
|-2-2-2-------------|-------------------------|---------|
|-------0-0-0-0---0-|-2-2-2-2-2-0-0-0-0-0-0-0-|-----0-0-|
|---------------2---|-------------------------|-2-2-----|

    e s s s s s s e s s s s s s   e s s s s s s e s s s s s s
||----r-------------r-----------|---r-------------p-----------|
||*---e-------------e-----------|---e-------------4-----------|
||*-2-s---0-2-2-0-2-s---0-2-2-0-|-2-s---0-2-2-0-2-----0-2-2-0-|
||----t-2-----------t-2---------|---t-2-------------2---------|
  Outro

   e s s s s s s e s s s s s s   e s s s s s s e s s s s s s  
|----r-------------r-----------|---r-------------p-----------|
|----e-------------e-----------|---e-------------4-----------|
|--2-s---0-2-2-0-2-s---0-2-2-0-|-2-s---0-2-2-0-2-----0-2-2-0-|
|----t-2-----------t-2---------|---t-2-------------2---------|

   e s s s s s s e s s s s s s   e s s s s s s e s s s s s s
|----r-------------r-----------|---r-------------p-----------|
|----e-------------e-----------|---e-------------4-----------|
|--2-s---0-2-2-0-2-s---0-2-2-0-|-2-s---0-2-2-0-2-----0-2-2-0-|
|----t-2-----------t-2---------|---t-2-------------2---------|

  e s s s s s s e s s s s s s   e s s s s s s s s s s s s e      q q h
|---r-------------p-----------|---r--------------------------||---r-r-||
|---e-------------4-----------|---e-------------------------*||---e-e-||
|-2-s---0-2-2-0-2-----0-2-2-0-|-2-s---0-2-2-0---------5-4-3-*||-2-s-s-||
|---t-2-------------2---------|---t-2---------5-4-3-2--------||---t-t-||

    	
fixar
fixar inscrever-se

enviado porenviado por: anônimo
cifra enviadaCorrigida por: sem correções
logo top cifrasComente
ico música do artistaMúsicas deste artista
ico curtiuCurtiu?
ico destaqueDestaque
Petaxxon Comunicação Online

Cifras.com.br - Melhor e mais completo site de cifras e tablaturas do Brasil Mais de 1 milhão de acordes de músicas cadastradas desde 2003
As informações contidas no nosso site são colaborações de seus usuários e podem conter erros, sendo assim, não nos responsabilizamos sobre nenhuma destas.

close
menos
mais
close
Cor dos acordes:

Cor da letra:

close
Alinhar acordes a direita Alinhar acordes a esquerda Alinhar acordes em baixo Alinhar acordes no topo
close
  Mostrar todos os acordes Esconder acordes muito fáceis Esconder acordes fáceis Esconder acordes intermediários
redimensionar
glossário