Cifras e Tablaturas
Faith no More

Faith no More

Rv (ver. 2)

Cifras Cancelar Versão de Impressão Print

Faith no More - Rv (ver. 2)

Tom:

  			

    w  15xq q q      H   H  +H  +q q q   H   H  +H  +q q q   H   H   H   H
---||--r--||-r-r----||----|---|---|-------|---|---|---|-------|---|---|---|---|
3:-||*-e-*||-e-e-10\||*---|-6-|-6-|-6-----|---|-6-|-6-|-6-----|---|-6-|---|-6-|
4:-||*-s-*||-s-s----||*-3-|---|---|-------|-3-|---|---|-------|-3-|---|-3-|---|
---||--t--||-t-t----||----|---|---|---3-3-|---|---|---|---3-3-|---|---|---|---|
                      1st Verse                                          

  H   H   H  +q q q  2x H   H   H  +q q q   H   H   H   h q   h q   h q   h q
|---|---|---|--------||---|---|---|-------|---|---|---|-----|-----|-----|-----|
|---|-6-|---|-------*||---|---|---|-------|---|-6-|---|-----|-----|-----|-----|
|-3-|---|-3-|-3-2-0-*||---|---|---|---0-2-|-3-|---|-3-|-0-1-|-2-2-|-5-5-|-5-5-|
|---|---|---|---3-3--||-3-|-2-|-3-|-3-----|---|---|---|-----|-----|-----|-----|
             Play low                                  Chorus
           G's 1st time.

  h q   h q   h q   q q q   q q q   h q   h+e e   q q q   h q   H   H   q q q
|-----|-----|-----|-------|-------|-----|-------|-------|-----|---|---|-------|
|-----|-----|-----|---7---|---8---|-----|-------|-------|-----|---|---|-------|
|-----|-----|-5-5-|-------|-------|-----|-5-5---|-5-7-5-|-----|---|---|---4-7-|
|-5-6-|-7-7-|-----|-5---5-|-6---6-|-7-7-|-----7-|-------|-5-6-|-7-|-3-|-5-----|

  q q q   H   H  +H  +q q q   H   H  +H  +q q q   H   H   H   H   H   H   H
|---r-r-|---|---|---|-------|---|---|---|-------|---|---|---|---|---|---|---|
|-7-e-e-|---|-6-|-6-|-6-----|---|-6-|-6-|-6-----|---|-6-|---|-6-|---|-6-|---|
|---s-s-|-3-|---|---|-------|-3-|---|---|-------|-3-|---|-3-|---|-3-|---|-3-|
|---t-t-|---|---|---|---3-3-|---|---|---|---3-3-|---|---|---|---|---|---|---|
         2nd Verse

  h q   h q   h q   h q   h q   h q   h q   q q q   q q q   h q   h+e e
|-----|-----|-----|-----|-----|-----|-----|-------|-------|-----|-------|
|-----|-----|-----|-----|-----|-----|-----|---7---|---8---|-----|-------|
|-0-1-|-2-2-|-5-5-|-5-5-|-----|-----|-5-5-|-------|-------|-----|-5-5---|
|-----|-----|-----|-----|-5-6-|-7-7-|-----|-5---5-|-6---6-|-7-7-|-----7-|
 Chorus

  q q q   h q   H   H   q q q   q q q     q q q   q q q   q q q   q q q
|-------|-----|---|---|-------|---r-r-||--------|-------|-------|-------|
|-------|-----|---|---|-------|-7-e-e-||*-------|-------|-------|-------|
|-5-7-5-|-----|---|---|---4-7-|---s-s-||*-------|-------|-------|-----6-|
|-------|-5-6-|-7-|-3-|-5-----|---t-t-||--1-1-1-|-1-1-1-|-1-1-1-|-1-0---|
                                        Bridge

  q q q   q q q   q q q   q q q   q q q   q q q   q q q   q q q  2x q q q
|-------|-------|-------|-------|-------|-------|-------|--------||-------|
|-------|-------|-------|-------|-------|-------|-------|-------*||-------|
|-5-5-5-|-5-5-5-|-5-5-5-|-5-5-5-|-3-3-3-|-3-3-3-|-3-3-3-|-3-3-3-*||-------|
|-------|-------|-------|-------|-------|-------|-------|--------||-1-1-1-|

  q q q   q q q   q q q   q q q   q q q   q q q   w   H  +H  +H  +q q q   H
|-------|-------|-------|-------|-------|---r-r-|-r-|---|---|---|-------|---|
|-------|-------|-------|-------|-------|---e-e-|-e-|---|-6-|-6-|-6-----|---|
|-------|-------|-------|-------|-------|---s-s-|-s-|-3-|---|---|-------|-3-|
|-1-1-1-|-1-1-1-|-1-1-1-|-3-3-3-|-3-3-3-|-3-t-t-|-t-|---|---|---|---3-3-|---|
                                                     3rd Verse

  H  +H  +q q q   H   H  +H  +q q q   H   H   H   H   H   H   H   q q q   H
|---|---|-------|---|---|---|-------|---|---|---|---|---|---|---|-------|---|
|-6-|-6-|-6-----|---|-6-|-6-|-6-----|---|-6-|---|-6-|---|-6-|---|-------|---|
|---|---|-------|-3-|---|---|-------|-3-|---|-3-|---|-3-|---|-3-|-3-2-0-|---|
|---|---|---3-3-|---|---|---|---3-3-|---|---|---|---|---|---|---|-------|-3-|

  H   H   q q q   H   H   H   h q   h q   h q   h q   h q   h q   h q   q q q
|---|---|-------|---|---|---|-----|-----|-----|-----|-----|-----|-----|-------|
|---|---|-------|---|-6-|---|-----|-----|-----|-----|-----|-----|-----|---7---|
|---|---|---0-2-|-3-|---|-3-|-0-1-|-2-2-|-5-5-|-5-5-|-----|-----|-5-5-|-------|
|-2-|-3-|-3-----|---|---|---|-----|-----|-----|-----|-5-6-|-7-7-|-----|-5---5-|
                             Chorus

  q q q   h q   h e e   q q q   h q   H   H   q q q   H   H   H  +H  +q q q
|-------|-----|-------|-------|-----|---|---|-------|---|---|---|---|-------|
|---8---|-----|-------|-------|-----|---|---|-------|-7\|---|-6-|-6-|-6-----|
|-------|-----|-5-5---|-5-7-5-|-----|---|---|---4-7-|---|-3-|---|---|-------|
|-6---6-|-7-7-|-----7-|-------|-5-6-|-7-|-3-|-5-----|---|---|---|---|---3-3-|
                                                         4th Verse

  H   H  +H  +q q q   H   H   H   H   H   H   H  +q q q   H   H  +H  +q q q
|---|---|---|-------|---|---|---|---|---|---|---|-------|---|---|---|-------|
|---|-6-|-6-|-6-----|---|-6-|---|-6-|---|-6-|---|-------|---|-6-|-6-|-6-----|
|-3-|---|---|-------|-3-|---|-3-|---|-3-|---|-3-|-3-----|-3-|---|---|-------|
|---|---|---|---3-3-|---|---|---|---|---|---|---|---3-3-|---|---|---|---3-3-|

  H   H  +H  +q q q   H   H   H   H   H   H   q q q   q q q
|---|---|---|-------|---|---|---|---|---|---|-------|-5-r-r-||
|---|-6-|-6-|-6-----|---|-6-|---|-6-|---|-6-|---2-5-|---e-e-||
|-3-|---|---|-------|-3-|---|-3-|---|-3-|---|-3-----|---s-s-||
|---|---|---|---3-3-|---|---|---|---|---|---|-------|---t-t-||

    	
fixar
fixar inscrever-se

enviado porenviado por: anônimo
cifra enviadaCorrigida por: sem correções
logo top cifrasComente
ico música do artistaMúsicas deste artista
ico curtiuCurtiu?
ico destaqueDestaque
Petaxxon Comunicação Online

Cifras.com.br - Melhor e mais completo site de cifras e tablaturas do Brasil Mais de 1 milhão de acordes de músicas cadastradas desde 2003
As informações contidas no nosso site são colaborações de seus usuários e podem conter erros, sendo assim, não nos responsabilizamos sobre nenhuma destas.

close
menos
mais
close
Cor dos acordes:

Cor da letra:

close
Alinhar acordes a direita Alinhar acordes a esquerda Alinhar acordes em baixo Alinhar acordes no topo
close
  Mostrar todos os acordes Esconder acordes muito fáceis Esconder acordes fáceis Esconder acordes intermediários
redimensionar
glossário