Cifras e Tablaturas
Flamin' Groovies

Flamin' Groovies

Sometimes

Cifras Cancelar Versão de Impressão Print

Flamin' Groovies - Sometimes

Tom:

  			
Verse 
  ("Sometimes I Cry When I'm Lonely")               ("And Sometimes I Cry When I'm Blue") 
G|-------------------------------------------------|-------------------------------------------------| 
D|-------------------------------------------------|-------------------------------------------------| 
A|-------------------------3-----------3-----5-----|-------------------------3-----------3-----5-----| 
E|-3-----------3-----------------------------------|-3-----------3-----------------------------------| 

  ("Right Now I'm Crying Cuz I Love Ya")               ("I'm Crying Cuz Ya Don't Love Me Too") 
G|-------------------------------------------------|-------------------------------------------------| 
D|-------------------------------------------------|-------------------------------------------------| 
A|-------------------------3-----------3-----5-----|-------------3-----5-----------------------------| 
E|-3-----------3-----------------------------------|-3-----------------------3-----------3-----------| 

Chorus 
("Come on Tell Me That You Love Me")                 ("Won't You Please Answer Yes Or No") 
G|-------------------------------------------------|-------------------------------------------------| 
D|-------------------------------------------------|-------------------------------------------------| 
A|-3-----------5-----------------------------------|-3-----------5-----------------------------------| 
E|-------------------------3-----------3-----------|-------------------------3-----------3-----------| 

G|-------------------------------------------------|-------------------------------------------------| 
D|-------------------------------------------------|-------------------------------------------------| 
A|-3-----------5-----------------------------------|-0-----------0-----------------------5-----------| 
E|-------------------------3-----------0-----------|-------------------------1-----------------------| 

Verse 
  ("Tell Me My Darling That You Love Me")               ("Tell Me That You Feel The Same") 
G|-------------------------------------------------|-------------------------------------------------| 
D|-------------------------------------------------|-------------------------------------------------| 
A|-------------------------3-----------3-----5-----|-------------------------3-----------3-----5-----| 
E|-3-----------3-----------------------------------|-3-----------3-----------------------------------| 

  ("Tell Me My Darling That You Love Me")           ("Or Have All The Tears I Shed Were Shed In Vain") 
G|-------------------------------------------------|-------------------------------------------------| 
D|-------------------------------------------------|-------------------------------------------------| 
A|-------------------------3-----------3-----5-----|-------------3-----5-----------------------------| 
E|-3-----------3-----------------------------------|-3-----------------------3-----------3-----------| 

Solo 
G|-------------------------------------------------|-------------------------------------------------| 
D|-------------------------------------------------|-------------------------------------------------| 
A|-3-----------3-----------------------------------|-1-----------1-----------6-----------5-----------| 
E|-------------------------1-----------1-----------|-------------------------------------------------| 

Verse 
  ("Sometimes I Cry When I'm Lonely")               ("And Sometimes I Cry When I'm Blue") 
G|-------------------------------------------------|-------------------------------------------------| 
D|-------------------------------------------------|-------------------------------------------------| 
A|-------------------------3-----------3-----5-----|-------------------------3-----------3-----5-----| 
E|-3-----------3-----------------------------------|-3-----------3-----------------------------------| 

  ("Right Now I'm Crying Cuz I Love Ya")               ("I'm Crying Cuz Ya Don't Love Me Too") 
G|-------------------------------------------------|-------------------------------------------------| 
D|-------------------------------------------------|-------------------------------------------------| 
A|-------------------------3-----------3-----5-----|-------------3-----5-----------------------------| 
E|-3-----------3-----------------------------------|-3-----------------------3-----------3-----------| 

Outro 
  ("I'm Crying Cuz Ya Don't Love Me Too")            ("I'm Crying Cuz Ya Don't Love Me Too") 
G|-------------------------------------------------|-------------------------------------------------| 
D|-------------------------------------------------|-------------------------------------------------| 
A|-------------3-----5-----------------------------|-------------3-----5-----------------------------| 
E|-3-----------------------3-----------3-----------|-3-----------------------3-----------3-----------| 
    	
fixar
fixar inscrever-se

enviado porenviado por: jov-correa
cifra enviadaCorrigida por: sem correções
logo top cifrasComente
ico música do artistaMúsicas deste artista
ico curtiuCurtiu?
ico destaqueDestaque
Petaxxon Comunicação Online

Cifras.com.br - Melhor e mais completo site de cifras e tablaturas do Brasil Mais de 1 milhão de acordes de músicas cadastradas desde 2003
As informações contidas no nosso site são colaborações de seus usuários e podem conter erros, sendo assim, não nos responsabilizamos sobre nenhuma destas.

close
menos
mais
close
Cor dos acordes:

Cor da letra:

close
Alinhar acordes a direita Alinhar acordes a esquerda Alinhar acordes em baixo Alinhar acordes no topo
close
  Mostrar todos os acordes Esconder acordes muito fáceis Esconder acordes fáceis Esconder acordes intermediários
redimensionar
glossário