Cifras e Tablaturas
From Autumn To Ashes

From Autumn To Ashes

Autumns Monologue

Cifras Cancelar Versão de Impressão Print

From Autumn To Ashes - Autumns Monologue

Tom:

  			



Autumn\'s Monologue

The Fiction We Live
Track 7


Intro  (dont think you play first part, but hey, knock yourself out)               x2          
G|---------------------------------------------------------------------------------|
D|---------------------------------------------------------------------------------|
A|---------------------------------------------------------------------------------|
E|-5-55555-55555-55555-3-33333-33333-33333-1-11111-11111-11111-3-33333-33333-33333-|   

Chorus                  x4
G|----------------------|
D|----------------------|
A|---------------33-2222|
E|-55-3-55~-33-55-------|

Verse                                                                              x2
G|---------------------------------------------------------------------------------|
D|---------------------------------------------------------------------------------|
A|---------------------------------------------------------------------------------|
E|-5-55555-55555-55555-3-33333-33333-33333-1-11111-11111-11111-3-33333-33333-33333-|

Piano Part        x4
G|----------------|
D|----------------|
A|---------3-3----|
E|-5-5-1-1----3-3-|   

chorusx2 (or play the riff 8 times)

outro                                                                              x2
G|---------------------------------------------------------------------------------|
D|---------------------------------------------------------------------------------|
A|---------------------------------------------------------------------------------|
E|-5-55555-55555-55555-3-33333-33333-33333-1-11111-11111-11111-3-33333-33333-33333-|

End On
G|----|
D|----|
A|----|
E|-5~-|

Jesus Loves You!! i dont know who gave me a one-star rating, but i tabbed this based on the guitar chords. i play this song over and over and im sure that this is correct. questions or comments send to josh_w1977yahoo.com

    	
fixar
fixar inscrever-se

enviado porenviado por: anônimo
cifra enviadaCorrigida por: sem correções
logo top cifrasComente
ico música do artistaMúsicas deste artista
ico curtiuCurtiu?
ico destaqueDestaque
Petaxxon Comunicação Online

Cifras.com.br - Melhor e mais completo site de cifras e tablaturas do Brasil Mais de 1 milhão de acordes de músicas cadastradas desde 2003
As informações contidas no nosso site são colaborações de seus usuários e podem conter erros, sendo assim, não nos responsabilizamos sobre nenhuma destas.

close
menos
mais
close
Cor dos acordes:

Cor da letra:

close
Alinhar acordes a direita Alinhar acordes a esquerda Alinhar acordes em baixo Alinhar acordes no topo
close
  Mostrar todos os acordes Esconder acordes muito fáceis Esconder acordes fáceis Esconder acordes intermediários
redimensionar
glossário