Cifras e Tablaturas
From Autumn To Ashes

From Autumn To Ashes

Lilacs & Lolitas

Cifras Cancelar Versão de Impressão Print

From Autumn To Ashes - Lilacs & Lolitas

Tom:

  			


"Lilacs & Lolitas"
The Fiction We Live
(E,A,D,G)

Intro:
---------------------------
-------------------------------
-----------------------------
-00000000-7p6-00000000-7p6-00000000-7p6-0000-7-00-6--

Riff 1:
-----------------------------------
------------------------------------
------------------------------------
-00-7p6-00-7p6-0-7p6-000000-7-000000-6---------------------------

Riff 2:
-----------------------------------
------------------------------------
-----------------------------------
-0-000-000-7-777-777-3-333-333-5-555-555-----------------------

Riff 3:
--------------------------------------
--------------------------------------
--------------------------------------
-000-000-00-333-333-33----------------

Fill:
-------------------------------------
--------------------------------------
--------------------------------------
-000000000000000000000000------------

Riff 4:
-----------------------------------------
-----------------------------------------
------------3/5--5---------------------------
-000-000-00--------------------------------------

Intro x1
Riff 1 x2
Riff 2 x2
Riff 3 x4
Riff 2 x2
Fill x1
Riff 4 x9
Riff 2 x2

    	
fixar
fixar inscrever-se

enviado porenviado por: anônimo
cifra enviadaCorrigida por: sem correções
logo top cifrasComente
ico música do artistaMúsicas deste artista
ico curtiuCurtiu?
ico destaqueDestaque
Petaxxon Comunicação Online

Cifras.com.br - Melhor e mais completo site de cifras e tablaturas do Brasil Mais de 1 milhão de acordes de músicas cadastradas desde 2003
As informações contidas no nosso site são colaborações de seus usuários e podem conter erros, sendo assim, não nos responsabilizamos sobre nenhuma destas.

close
menos
mais
close
Cor dos acordes:

Cor da letra:

close
Alinhar acordes a direita Alinhar acordes a esquerda Alinhar acordes em baixo Alinhar acordes no topo
close
  Mostrar todos os acordes Esconder acordes muito fáceis Esconder acordes fáceis Esconder acordes intermediários
redimensionar
glossário