Cifras e Tablaturas
From Autumn To Ashes

From Autumn To Ashes

Lilacs And Lolita

Cifras Cancelar Versão de Impressão Print

From Autumn To Ashes - Lilacs And Lolita

Tom:

  			

Artist	
Song	
Album	The Fiction We Live

standard tuning

tabbed by TheBigLebowski ([email protected])

Intro
1|---------------------------------------------------|
2|--------------------------------------------5----4-|
3|--------3/2-------------3/2--------3/2------3----2-|
4|-000-00-----000-00-0000-----000-00-----0000---00---|

Verse					    2x
1|--------------------------------------------|-----|
2|--------------------------------------------|-----|
3|--------3/2-------------3/2-33-3333-22-2222-|-----|
4|-000-00-----000-00-0000---------------------|--0--|

Chorus				4x
1|-------------------------------|------|
2|-------------------------------|------|
3|-------3-333-33-2-222-5-555-55-|------|
4|-0-000-------------------------|--0~--|

Breakdown		3x	
1|------------------------|----------------------------|
2|------------------------|----------------------------|
3|------------333-333--55-|--------------333333-555555-|
4|-000-000-00-------------|-0000-0000-00---------------|

Chorus	4x|------------------|
	  |------------------|
	  |------------------|
	  |-0000000000000000-|
	
Bridge						3x
1|--------|----------------------------------------|--------------------|
2|--------|----------------------------------------|--------------------|
3|-6-5-7/-|--------------77-77--------------5\3-7/-|---------------3--5-|
4|--------|-000-00000-00-------000-00000-00--------|-000-00000-00-0--0--|

Chorus	4x

End
1|------|
2|------|
3|------|
4|--0~--|

Please rate this tab, Thanks.

    	
fixar
fixar inscrever-se

enviado porenviado por: anônimo
cifra enviadaCorrigida por: sem correções
logo top cifrasComente
ico música do artistaMúsicas deste artista
ico curtiuCurtiu?
ico destaqueDestaque
Petaxxon Comunicação Online

Cifras.com.br - Melhor e mais completo site de cifras e tablaturas do Brasil Mais de 1 milhão de acordes de músicas cadastradas desde 2003
As informações contidas no nosso site são colaborações de seus usuários e podem conter erros, sendo assim, não nos responsabilizamos sobre nenhuma destas.

close
menos
mais
close
Cor dos acordes:

Cor da letra:

close
Alinhar acordes a direita Alinhar acordes a esquerda Alinhar acordes em baixo Alinhar acordes no topo
close
  Mostrar todos os acordes Esconder acordes muito fáceis Esconder acordes fáceis Esconder acordes intermediários
redimensionar
glossário