Cifras e Tablaturas
From Autumn To Ashes

From Autumn To Ashes

Short Stories With Tragic Endings

Cifras Cancelar Versão de Impressão Print

From Autumn To Ashes - Short Stories With Tragic Endings

Tom:

  			

Artist	
Song	
Album	Too Bad You're Beautiful

standard tuning

tabbed by TheBigLebowski ([email protected])

Intro
1|	   |-----------------------------------------|-----------------
2|	   |-----------------------------------------|-----------------
3|LONG REST|---------0---0-0---------0---0-0-0002233-|-8---8-8-0---0-0-
4|	   |-1---1-1---------1---1-1-----------------|-----------------
						  2x
1|-------------------------|------------------------|---|
2|-------------------------|------------------------|---|
3|-8---8-8-0---0-0-0002233-|-8888-88108-0000-002233-|---|
4|-------------------------|------------------------|-0-|

Heavy Verse				  2x
1|------------------------------------------|--------|		    |
2|------53-----------------53------55533322-|--------|		    |
3|---3------3-050302----3-------3-0---------|--------|Heavy Verse 2x|
4|-00--0---0----------00--0----0------------|--0--0--|		    |
				   ^tremelo

Quiet Verse		      4x
1|------------------------------|
2|----------------5-5--5-5--5-5-|
3|-7-7--7-7--7-7--3-3--3-3--3-3-|
4|-0-0--0-0--0-0----------------|

Chorus		       4x						   4x
1|-----------------------|---------------------------------------------------|
2|-----------------------|-------------------1010101010101010-12121212121212-|
3|-777777-10~--333333-5~-|-77777777-7777-------------------------------------|
4|-----------------------|--------------8888---------------------------------|
						     3x
1|---|		    |----------------|-----------------|----------------------|
2|---|		    |----------------|-----------------|----------------------|
3|---|Heavy Verse 2x|----------------|-8---8-8-0---0-0-|-8---8-8-0---0-0-0023-||
4|-0-|              |-00--00--00--00-|-----------------|----------------------|
			4x
1|------------------------|
2|------------------------|
3|-8888-88108-0000-002233-|pick up intensity and tempo 7x
4|------------------------|

1|---------------------|
2|---------------------|Acoustic Interlude
3|-8p7-8p7-8p7-8p7--0~-|
4|---------------------|
			Part 1			       3x
1|---------------------|---------------------------------|
2|---------------------|---------------------------------|
3|-3-----------3-----5-|-3---3-3---------3---3-3-5---5-5-|
4|-------3-------------|---------3---3-3-----------------|

Part 2
1|---------------------------------------------------|
2|---------------------------------------------------|
3|-3333-3333-----------3333-3333-5555-77788810101210-|
4|-----------3333-3333-------------------------------|

Part 1 2x
Part 2 2x|--------------------|------|
	 |--------------------|------|
	 |-3~--------3~---5~--|--3~--|
	 |------3~------------|------|

Please rate this tab, Thanks.

    	
fixar
fixar inscrever-se

enviado porenviado por: anônimo
cifra enviadaCorrigida por: sem correções
logo top cifrasComente
ico música do artistaMúsicas deste artista
ico curtiuCurtiu?
ico destaqueDestaque
Petaxxon Comunicação Online

Cifras.com.br - Melhor e mais completo site de cifras e tablaturas do Brasil Mais de 1 milhão de acordes de músicas cadastradas desde 2003
As informações contidas no nosso site são colaborações de seus usuários e podem conter erros, sendo assim, não nos responsabilizamos sobre nenhuma destas.

close
menos
mais
close
Cor dos acordes:

Cor da letra:

close
Alinhar acordes a direita Alinhar acordes a esquerda Alinhar acordes em baixo Alinhar acordes no topo
close
  Mostrar todos os acordes Esconder acordes muito fáceis Esconder acordes fáceis Esconder acordes intermediários
redimensionar
glossário