Funeral For a Friend

Funeral For a Friend

Kiss And Make Up
nível sem nível
[Intro ]

G|---------------------| 
D|---------------------| 
A|---2~----------------| 
E|--------4~---2~---0--| X2 

G|------| 
D|------| 
A|--2~-- 
| 
E|------ 
| 

Verse 

G|--------------------------------------------------------------| 
D|--------------------------------------------------------------| 
A|-----------------------------------------------7--7---7--3/5--| 
E|---9-9--9-9-9--9-9-9-9/11-11-11---9-9--9-9--9-----------------| 

G|------------------------------------------------------------------| 
D|------------------------------------------------------------------| 
A|------------------------------------------------------------------| 
E|---4-4-4--4-4--4-4/6-6-6--7-7-7---3-3-3--3-3--3-3/5-5-5--7-7-7-7--| 

G|--------------------------------------------------------------| 
D|--------------------------------------------------------------| 
A|-----------------------------------------------7--7---7--3/5--| 
E|---9-9--9-9-9--9-9-9-9/11-11-11---9-9--9-9--9-----------------| 

G|--------------------------------------------------------------------| 
D|--------------------------------------------------------------------| 
A|--------------------------------------------------2-2-2-2-----------| 
E|---4-4-4--4-4--4-4/6-6-6--8-8-8---4-4-4--4-4--4---------------------| 

Chorus 
G|-------------------| 
D|-------------------| 
A|---7/8~---7/8--10--| 
E|-------------------| x8 

verse 2 
G|--------------------------------------------------------------| 
D|--------------------------------------------------------------| 
A|-----------------------------------------------7--7---7--3/5--| 
E|---9-9--9-9-9--9-9-9-9/11-11-11---9-9--9-9--9-----------------| 

G|------------------------------------------------------------------| 
D|------------------------------------------------------------------| 
A|------------------------------------------------------------------| 
E|---4-4-4--4-4--4-4/6-6-6--7-7-7---3-3-3--3-3--3-3/5-5-5--7-7-7-7--| 

G|--------------------------------------------------------------| 
D|--------------------------------------------------------------| 
A|-----------------------------------------------7--7---7--3/5--| 
E|---9-9--9-9-9--9-9-9-9/11-11-11---9-9--9-9--9-----------------| 

G|------------------------------------------------------------------| 
D|------------------------------------------------------------------| 
A|--------------------------------------------------2-2-2-2---------| 
E|---4-4-4--4-4--4-4/6-6-6--8-8-8---4-4-4--4-4--4-------------------| 

Chorus 2 
G|-------------------| 
D|-------------------| 
A|---7/8~---7/8--10--| 
E|-------------------| x16 

Interlude 
G|-------------------------------------------------------------------------| 
D|-------------------------------------------------------------------------| 
A|------------------------------------------6h7----------------------6h7---| 
E|---1--1-1---/9--9--11---1--13---9-9-8-9-----11-11-9-11-8h9-11-11---------| x4 

Outro 
G|--------------------------------------------------------------------------| 
D|--------------------------------------------------------------------------| 
A|---7--7--7--7--7--7--7--7--7--7--7--7--7--7-------------------------------| 
E|---------------------------------------------1--6-6-6-6-6-6--9-9-9-9-9-9--| x4 

G|--------| 
D|--------| 
A|---7~---| 
E|--------| 



************************************ 

| ~  Vibrato 
| /  Slide up 
| h  Hammer-on 

************************************

Enviado por: Marcos Nagel

Corrigido por: sem correções