Cifras e Tablaturas
Funeral For Afind

Funeral For Afind

Bullet Theory

Cifras Cancelar Versão de Impressão

Funeral For Afind - Bullet Theory

Tom:

  			

Band      - Funeral For A Friend
Song      - 
Record    - Casually Dressed And Deep In Conversation
Bassist   - Gareth Davies
Tabbed by - Kael Morgan

Down half a step, then drop D


Intro (00:12)

Gb|---------------
Db|---------------
Ab|--------------- x1
Db|-0-0-0-0-0-0-0-

Gb|----------------------------------------------------------------
Db|----------------------------------------------------------------
Ab|---------------------------------------------------------------- x1
Db|-8-8-8-8--8-10---10---10-10--10-10-12-12--12-12---12---12-12-12-

Gb|------------------------------------------------
Db|------------------------------------------------
Ab|------------------------------------------------ x1
Db|-8-8-8-8--8-10---10---10-10--10-10-12-12--12-12-


Verse (00:28)
Gb|--------------------------
Db|--------------------------
Ab|-3-3-3-3------------3-3-3- x1
Db|--------------------------

Gb|---------------------------------------
Db|---------------------------------------
Ab|--------------------------------------- x1
Db|-0-0-0-300500305035-0-0-0-300500305077-

Gb|----------------------------------
Db|----------------------------------
Ab|---------------------------------- x4
Db|-8-8-8-8-8-8-10-10-10-10-10-10\12-


Chorus (00:56)
Gb|----------------------------------------------------------------
Db|----------------------------------------------------------------
Ab|---------------------------------------------------------------- x1
Db|-8-8-8-8--8-10---10---10-10--10-10-12-12--12-12---12---12-12-12-

Gb|------------------------------------------------
Db|------------------------------------------------
Ab|------------------------------------------------ x1
Db|-8-8-8-8--8-10---10---10-10--10-10-12-12--12-12-


Verse (01:10)
Gb|--------------------------
Db|--------------------------
Ab|-3-3-3-3------------3-3-3- x1
Db|--------------------------

Gb|---------------------------------------
Db|---------------------------------------
Ab|--------------------------------------- x1
Db|-0-0-0-300500305035-0-0-0-300500305077-

Gb|----------------------------------
Db|----------------------------------
Ab|---------------------------------- x4
Db|-8-8-8-8-8-8-10-10-10-10-10-10\12-



Chorus (01:39)
Gb|----------------------------------------------------------------
Db|----------------------------------------------------------------
Ab|---------------------------------------------------------------- x1
Db|-8-8-8-8--8-10---10---10-10--10-10-12-12--12-12---12---12-12-12-

Gb|------------------------------------------------
Db|------------------------------------------------
Ab|------------------------------------------------ x1
Db|-8-8-8-8--8-10---10---10-10--10-10-12-12--12-12-

Gb|----------------------------------------------------------------
Db|----------------------------------------------------------------
Ab|---------------------------------------------------------------- x1
Db|-8-8-8-8--8-10---10---10-10--10-10-12-12--12-12---12---12-12-12-

Gb|------------------------------------------------
Db|------------------------------------------------
Ab|------------------------------------------------ x1
Db|-8-8-8-8--8-10---10---10-10--10-10-12-12--12-12-


Bridge (02:07)
Gb|---------------------------------
Db|---------------------------------
Ab|--------------------------------- x2
Db|-0-12\-0-12\-0-12\-0-12\-0-0-0-0-

Gb|---------------------------------
Db|---------------------------------
Ab|--------------------------------- x1
Db|-0-/12-0-/12-0-/12-0-/12-0-0-0-0-

Gb|---------------------------------
Db|---------------------------------
Ab|--------------------------------- x1
Db|-0-12\-0-12\-0-12\-0-12\-0-0-0-0-

Gb|---------------------
Db|---------------------
Ab|-3--3--3--3--3-3-3-3- x8
Db|-0--0--0--0--0-0-0-0-


Chorus (02:54)

Gb|---------------
Db|---------------
Ab|--------------- x1
Db|-0-0-0-0-0-0-0-

Gb|----------------------------------------------------------------
Db|----------------------------------------------------------------
Ab|---------------------------------------------------------------- x1
Db|-8-8-8-8--8-10---10---10-10--10-10-12-12--12-12---12---12-12-12-

Gb|------------------------------------------------
Db|------------------------------------------------
Ab|------------------------------------------------ x1
Db|-8-8-8-8--8-10---10---10-10--10-10-12-12--12-12-

Gb|----------------------------------------------------------------
Db|----------------------------------------------------------------
Ab|---------------------------------------------------------------- x1
Db|-8-8-8-8--8-10---10---10-10--10-10-12-12--12-12---12---12-12-12-

Gb|-------------------------------------------------
Db|-------------------------------------------------
Ab|------------------------------------------------- x1
Db|-8-8-8-8--8-10---10---10-10--10-10-12-12--12-12~-

    	
fixar
fixar inscrever-se

enviado porenviado por: anônimo
cifra enviadaCorrigida por: sem correções
logo top cifrasComente
ico música do artistaMúsicas deste artista
ico curtiuCurtiu?
ico destaqueDestaque
Petaxxon Comunicação Online

Cifras.com.br - Melhor e mais completo site de cifras e tablaturas do Brasil Mais de 1 milhão de acordes de músicas cadastradas desde 2003
As informações contidas no nosso site são colaborações de seus usuários e podem conter erros, sendo assim, não nos responsabilizamos sobre nenhuma destas.

close
menos
mais
close
Cor dos acordes:

Cor da letra:

close
Alinhar acordes a direita Alinhar acordes a esquerda Alinhar acordes em baixo Alinhar acordes no topo
close
  Mostrar todos os acordes Esconder acordes muito fáceis Esconder acordes fáceis Esconder acordes intermediários
redimensionar
glossário